|  
 
:  
  : :  
      ?    

  |

akords.org » » » ,

- ,  

- ,

Dm akk 1
p p
akk 2 akk 3 A7
p
p p p
p p

P:
(5)Dm7 (3)Gm7 (3)C F
, , ,
B (3)Gm7 A
P, , p
p
p

p p
H p
,


P:
, , ,
P, , p
p
p -

H p p
pp
H p


P:
, , ,
P, , p
p p


, , ,
P, , p

p -



1|----1-1-1----1-1-1-----1-1-1------0----0---
2|----3-3-3----3-3-3-----3-3-3------3----2---
3|----2-2-2----2-2-2-----0-0-0------0----0--- 2 p
4|-0------------------------------3----------
5|-----------1---------2---------------------


1|----5-8-5-----3-5-3-3--1--1-1-1-1--3-0-5-0------
2|----6-6-6-----3-3-5----1--3-3-3-3--3--------2---
3|----5-5-5-----3-3-5----2--3--------3--------2--- 2 p
4|--7---------3-----5----3--3--------3--------2---
5|------------5-----3----3--1--------5------------

akk1 akk2 akk3
1|-0-|-0-|--0
2|-3-|-3-|--3
3|-3-|-2-|--0
4|-0-|-3-|--3
5|-1-|-2-|--0
6|-3-|-0-|--0

-----------------------------
|  , ,   |
|     http://akords.org     |
-----------------------------

 (: 0)
    :
  • ,
  • ,
  • ,
  •  
    , . '.

    ':*
    E-Mail:*
    :
    , : *
     
      

    BLIBL-