|  
 
:  
  : :  
      ?    
.

  |

akords.org » » »

-  

Intro theme

D G G/A D G
-----2---------3-------3----------------2---------3-------3--->7-5-3-----------
-----3---3-2---3-----3-3----------------3---3-2---3-----3----->7-5-3-----------
---2---2-----0-0---0---0--------------2---2-----0-0---0------------------------
-0------------------------------0=2-0------------------------------------------
---------0-------------0----0=2-------------0----------------------------------
---------------3----------------------------------3----------------------------

D G C9 D/B C9
-----232---------3-----------------2-----2-------------------------------------
-----3-----3-2---3-----3-3-----3---3---3---3-------3-----3-->5-3---------------
---2-----2-----0-0---0---3-------3---2-------2--2--3---3---->5-3---------------
-0---------------------------2-----------------0-----2-----------2-------------
-----------0-------------3---------2---------------3---------------------------
-----------------3-------------------------------------------------------------

D A G D C9 D/B C9/Bb A(Add F) D/E Dsus2/E
, 䠠 -0--2---0-----1--------2----0----
D G Em A -3--3---3-----2--------3----3----
堠 "Grateful Dead" -3--2---3-----2--------2----2----
D G D/B Dsus2/E -2--0---2-----2--------x----x----
, -3--2---1-----0--------x----x----
C9 C9/Bb A(Add F) A -----------------------0----0----
(, , , ...)
D A G D

D G Em A

D G D/B Dsus2/E

C9 A(Add F) A
⠠ , ...


D/E A D
!



, ...
!

, ...

!



, ...
!
, ,
...

!

-----------------------------
|  , ,   |
|     http://akords.org     |
-----------------------------

 (: 0)
    :
  • , !
  • ( )
  • ( ) (2 )
  •  
    , . '.

    ':*
    E-Mail:*
    :
    , : *
     
      

    BLIBL-