|  
 
:  
  : :  
      ?    

  |

akords.org » » »

-  

-

Ilya Sherenkov 2:5005/33.3333

Em, ,
Em .
Dm , Em,
:

Dm

E-5-4-5---3-2-3---1-0-1-----0---------|---1---------0-------0---------0-|
B-6-5-6---5-4-5---3-2-3----3--3-1-----|-----3---------0-------3-2-------|
G-------------------------3-------2/3-|-2---------3-------1---------2---|
D-0---------------0-------------------|-0-------------------------2-----|
A---------0---------------------------|-------------------------0-------|
E-------------------------3-----------|-------1-3-------0---------------|

E-5-4-5---3-2-3---1-0-1-----0---------|---1---------0---------------1---|
B-6-5-6---5-4-5---3-2-3----3--3-1-----|-----3---------0-0---2---------3-|
G-------------------------3-------2/3-|-2---------3-------1---2---2-----|
D-0---------------0-------------------|-0-----------------0---2-0-------|
A---------0---------------------------|---------------------0-----------|
E-------------------------3-----------|-------1-3-------0---------------|
-..
Em ( ).

E-7-6-7---5-4-5---3-2-3-----2-0-------|---3-0---------------2-----------|
B-8-7-8---7-6-7---5-4-5----1----3-0/1-|-------0-1---1---------5-4-------|
G-------0---------------0-2-----------|-----------2-------3---------2---|
D-------------------------------------|---------------------------4---4-|
A---------0---------------0-----------|---------0-----0---------2-------|
E-0---------------0-------------------|-0---------------2---------------|


E-----0-7-5-----------0-3---2-0-------|---3-0---------------2---------2-|
B----0--------5------0-----1----3-0/1-|-------0-1---1---------5-4-------|
G---0-------5---5---0-----2-----------|-----------2-------3---------4---|
D-------------------------------------|---------------------------4-----|
A---------0---------------0-----------|---------0-----0---------2-------|
E-0---------------0-------------------|-0---------------2---------------|

E-7-6-7---5-4-5---3-2-3-----2-0-------|---3-0-------------------0-------|
B-8-7-8---7-6-7---5-4-5----1----3-0/1-|-------0-1---1---2---4---0-------|
G-------0---------------0-2-----------|-----------2-------3---2-0-------|
D-------------------------------------|-------------------4---4---------|
A---------0---------------0-----------|---------0-----0-----2-----------|
E-0---------------0-------------------|-0---------------2-------0-------|

-----------------------------
|  , ,   |
|     http://akords.org     |
-----------------------------

 (: 0)
    :
  • (2 )
  •  
    , . '.

     
      

    BLIBL-