Зробити стартовою  |  Додати в вибране
 
Пошук по сайту:  
  логін: пароль:  
    Реєстрація на сайті   Нагадати пароль?    

Видавництво Симфонія | Книжкова фабрика

akords.org » Ч » Чиж и Ко » все OK
Знайти необхідні акорди

Чиж и Ко - все OK  табулатура

Чиж - все OK

Подбор  : Denis Zorin   ( 2:5055/59.39 )


1|---2-------------------------|---2----------------|
2|-3---3-----3-------3-------3-|-----3-----3--------|
3|-2-----2-2-------0---0---0---|-------2-2---3-3--3-|
4|-----------------------------|-0-----------3-3--3-|
5|-------------3-2-------3-----|-------------0-0--0-|
6|-----------------------------|--------------------|

1|---------2-------------2----------------2-------2-----------|
2|-----------3-----3-------3---3------------3-------3-----3-3-|
3|-------------2-----2-------0---0---0--------2-------0---3-3-|
4|-----0-0------------------------------0-----------------3-3-|
5|-0p2-----------3-----2-----------3------------3-------0-----|
6|------------------------------------------------------------|

Дальше примерно так:
   D               F#          Hm
1|-------2-------|-------0---|-------2-------------2-------|
2|-3-3-----3-----|-2-2-----2-|-3-3-----3---3---3-----3---3-|
3|-2---2-----2---|-3---3-----|-4---4-----4-------4-----4---|
4|-------------4-|-4---------|-4-------------4-------------|
5|---------------|-----------|-----------------------------|
6|---------------|-----------|-----------------------------|
   G               A               D               A
1|-3-------3-----|---------0-----|-------2-----5-|-------0-|
2|-----0-------0-|-----2-------2-|-----3---3-----|-----2---|
3|---0---0---0---|---2---2---2---|---2-------2---|---2-----|
4|---------------|---------------|-0-------------|---------|
5|---------------|-0-------------|---------------|-0-------|
6|-3-------------|---------------|---------------|---------|

-----------------------------
|  акорди, навчання, відео  |
|     http://akords.org     |
-----------------------------

 (голосів: 0)
   Інші пісні:
  • Denis
  • Denis
  • Denis
  • You Know My Name
  • Московская
  •  
    Шановний відвідувач, Ви зайшли на сайт як незареєстрований користувач. Ми рекомендуємо Вам реєструватися або зайти на сайт під своїм ім'ям.

    Додавання коментаря

    Ім'я:*
    E-Mail:*
    Коментар:
    Введіть два слова, показані на зображенні: *
     
      

    BLIBL-створити сайт безкоштовно