|  
 
:  
  : :  
      ?    

  |

akords.org » » »

-  

& Co -

:

4||--------------------------0----2----|

G D G C G
|--------------------------------------|--------------------------------------|
|--------------------------------------|---------0----1----0------------------|
|0-------2^3^2^0---2-----0^2^0---------|0--------0----0----0---------0----2/-4|
|----0-----------2-0--------------2----|-----0--------------------------------|
|------------------0-------------------|---------2----3----2------------------|
|3-------------------------------------|3-------------------------------------|

D
|--------------------------------------|--------------------------------------|
|3-------3-------3^5----3--------------|--1---1--3---------1------------------|
|----0-------0--------------------4---|2---2--------2----------2---/4----5---|
|------0-------------------------------|0-------------------------------------|
|--------------------------------------|0--------0----------------------------|
|--------------------------------------|--------------------------------------|

G C
|-----------------------/3~~~~~~~~~~~~-|--------------------------------------|
|/3------------------------------------|1--------1^3--3^1--1---------1--------|
|----0---3^0-------0-------------------|0---0----0----0----0----0----0----0---|
|-------------3------------------------|2-----2--2----3----2----2---------2---|
|--------------------------------------|--------------------------------------|
|--------------------------------------|--------------------------------------|

G C G
Comin' in on a wing and a prayer
G D
Comin' in on a wing and a prayer
G
Though there's one motor gone
C
We can still carry on
G D G
Comin' in on a wing and a prayer

G C G
What a show, what a fight
G C D
Yes we really hit our target for tonight
G D G
How we sing as we limp through the air
G C D
Look below, there's our field over there
G
With our full crew aboard
C
And our trust in the Lord
G D G
We're comin' in on a wing and a prayer
G

D#
y p
G
py
F
C
D A
p p
D G
y
D A
p
A D

G C G

G D
p
G C
p p
G D G
H p

-----------------------------
|  , ,   |
|     http://akords.org     |
-----------------------------

 (: 0)
    :
  • Night Wing
  • Gimme Gimme Gimme
  • Straight From The Heart
  • Heat Of The Night
  •  
    , . '.

    ':*
    E-Mail:*
    :
    , : *
     
      

    BLIBL-