|  
 
:  
  : :  
      ?    

  |

akords.org » » » 18

- 18  2

:
()
Am H* Hm* Hm* (4 )
:
e|------------
B|2/5-5.--3-3-
G|1/4-4.--4-4-
H*
e|-0-
B|-3-
G|-4-
D|-4-
A|-0-
E|-x-
Hm*
e|-0-
B|-3-
G|-4-
D|-4-
A|-2-
E|-x-
Am Am/C Dm E
, 堠
, - 렠


Am Dm G C

Am H* F* E

F*
e|-0-
B|-1-
G|-2-
D|-1-
A|-x-
E|-x-
:
Am Dm G C Am Dm F E
e|-0---1---3-1-0------------0------0-------------------(1-3-1)--
B|(1)-(3)--0------3-1-0-1-3------1---3----1-3-1---0-------------
G|(2)-(2)--0-------------------2----------------2---------------
D|--------------------------------------------------------------
A|--------------------------------------------------------------
E|--------------------------------------------------------------





...
...
Dm Dm7 Dm6
, , , ,
E Am Am/G F
. .
Dm Dm7 Dm6 E
, , , , ,
Am Am/G F E
. .
, .›:
G|-------------------------------------------------
D|-------------------------------------------------
A|-5.--5-3---3-2---2-------------------------------
E|-------------------0---5---5-3---3-1---1-0-------
Am Am/C Dm E
,
Am Am/C Dm E
, .
Am Am/C Dm G
, - ,
Cmaj7 Fmaj7 Dm E
- .

.
.

-----------------------------
|  , ,   |
|     http://akords.org     |
-----------------------------

 (: 0)
    :
  • 18
  • (2 )
  •  
    , . '.

    ':*
    E-Mail:*
    :
    , : *
     
      

    BLIBL-