Зробити стартовою  |  Додати в вибране
 
Пошук по сайту:  
  логін: пароль:  
    Реєстрація на сайті   Нагадати пароль?    

Видавництво Симфонія | Книжкова фабрика

akords.org » Ч » Чайф » Всему свое время
Знайти необхідні акорди

Чайф - Всему свое время  табулатура

Intro, проигрыши между куплетами и outro играются так:

1st (rhythm) guitar
   Gm      F       C       Dm
E|------3-------1-------3-------5---|
B|------3-------1-------5-------6---|
G|----3---3---2---2---5---5---7---7-|
D|----------------------------------|
A|------------------3-------5-------|
E|--3-------1-----------------------|

2nd (solo) guitar
E|----------1-1-0-1-0------------1-1-3-1-0---|
B|--------3-----------3--------3-----------3-|
G|--0-2-3----------------0-2-3---------------|

Куплет играется так:
    F               C
E|------1-------1-------3-------3---|
B|------1-------1-------5-------5---|
G|----2---2---2---2---5---5---5---5-|
D|----------------------------------|
A|----------3-------3---------------|
E|--1-----------------------3-------|

    Gm              Dm
E|------3-------3-------5-------5---|
B|------3-------3-------6-------6---|
G|----3---3---3---3---7---7---7---7-|
D|----------------------------------|
A|----------5-------5---------------|
E|--3-----------------------5-------|

    Gm      F       C       Dm
E|------3-------1-------3-------5---|
B|------3-------1-------5-------6---|
G|----3---3---2---2---5---5---7---7-|
D|----------------------------------|
A|------------------3-------5-------|
E|--3-------1-----------------------|

Со мной моя нежность, да что с нею делать.
Унять свою гордость - душа б не болела.
Со мной рядом зависть, а с ней моя злоба.
Желанье быть первым, и чтоб высшей пробы.

Выцвела книга, ее не открыли.
Ведь были же крылья, да надломили.
В одной руке бритва, в другой моя смелость,
К вечеру битва, с утра моя серость.

Над крышею небо. Всему свое время.
С тобой твое дело, в тебе моя вера.
Со мной ночью холод, желанье напиться,
Опять чужой голос, усталые лица.

Диалог:
Он: Ну и как ты дальше?
Она: Не знаю.
Он: Наверно есть какие-то другие варианты?
Она: Наверно есть.
Он: Ну вот. Намного лучше.
Она: По крайней мере пить не хуже.
Он: Я так понял ты просто не хочешь со мной говорить?
Она: Да ну. На эту тему не хочу.
Он: Не понимаю, просто не понимаю.
Она: Я тоже. Когда-нибудь мы поймем.
Он: Когда?
Она: Всему свое время.

-----------------------------
|  акорди, навчання, відео  |
|     http://akords.org     |
-----------------------------

 (голосів: 0)
   Інші пісні:
  • Всему свое время
  • Всему свое время
  • Песенка про гадость
  • Трачу Свое Время
  • Спой со мной
  •  
    Шановний відвідувач, Ви зайшли на сайт як незареєстрований користувач. Ми рекомендуємо Вам реєструватися або зайти на сайт під своїм ім'ям.

    Додавання коментаря

    Ім'я:*
    E-Mail:*
    Коментар:
    Введіть два слова, показані на зображенні: *
     
      

    BLIBL-створити сайт безкоштовно