|  
 
:  
  : :  
      ?    

  |

akords.org » » » ( )

- ( ) 2

E E A E A H7 E
, .
A H7 E A
, .
E H7 E
, !

1st. Guitar
E|--------|
H|--------|
G|--------| 8
D|--------|
A|-2-2-4-4|
E|-0-0-0-0|

2nd. Guitar (Solo)
E|-------|-------|-----5-5|--------|-----5-5|--------|-----5-5-|
H|-------|-------|-----8-5|--------|-----8-5|--------|-----8-5-|
G|-------|-------|-----6-6|--------|-----6-6|--------|-----6-6-|
D|-------|-------|-----5-5|--------|-----5-5|--------|-----5-5-|
A|-------|-------|-----7-7|--------|-----7-7|--------|-----7-7-|
E|-------|-------|--------|--------|--------|--------|---------|

1st. Guitar
E|--------|--------|--------|---------|
H|--------|--------|--------|---------|
G|--------|--------|--------|---------|
D|--------|--------|--------|---------|
A|-2-2-4-4|-2-2-4-4|-2-2-4-4|-2-2-4-4-|
E|-0-0-0-0|-0-0-0-0|-0-0-0-0|-0-0-0-0-|
...
2nd. Guitar
E|--------|--------|----------|
H|-2-2-2-2|-2-2-2-2|-2-2------|
G|-4-4-4-4|-4-4-4-4|-4-4⁄2-0--|
D|--------|--------|---------2|
A|--------|--------|----------|
E|--------|--------|----------|

E A E E A H7 E
E|-------|-------|--------|--------|--------|--------|---------|
H|-------|-------|--------|--------|--------|--------|---------|
G|-------|-------|--------|--------|--------|--------|---------|
D|-------|2-2-4-4|--------|--------|-2-2-4-4|-1-1-4-4|---------|
A|2-2-4-4|0-0-0-0|-2-2-4-4|-2-2-4-4|-0-0-0-0|-2-2-2-2|-2-2-4-4-|
E|0-0-0-0|-------|-0-0-0-0|-0-0-0-0|--------|--------|-0-0-0-0-|
... 蠠 蠠

E A H7 E A E H7
-------|-------|--------|--------|---------|---------|---------|
-------|-------|--------|--------|---------|---------|---------|
-------|-------|--------|--------|---------|---------|---------|
-------|2-2-4-4|-1-1-4-4|--------|-2-2-4--4|---------|-1-1-4-4-|
2-2-4-4|0-0-0-0|-2-2-2-2|-2-2-4-4|-0-0-0--0|-2-2-4--2|-2-2-2-2-|
0-0-0-0|-------|--------|-0-0-0-0|---------|-0-0-0--0|---------|


E
E|-----------|
H|-----------|
G|-----------|
D|-----------|
A|-2-2-4-4-2-|
E|-0-0-0-0-0-|

, .
, , .
, !

, .
- .
- !

1st. Guitar
E
E|----------|
H|----------|
G|----------|
D|----------| - 8 .
A|-2-2-4--4-|
E|-0-0-0--0-|

2nd. Guitar (Solo)
E
E|----------------------------|
H|--2-2-2-2-2-2-2-2-2-2-------|
G|--4-4-4-4-4-4-4-4-4-4⁄2-0---|
D|--------------------------2-| - 2 .
A|----------------------------|
E|----------------------------|

, .
.
, - !

E A E E
E|---------|---------|---------|----------|
H|---------|---------|---------|----------|
G|---------|---------|---------|----------|
D|---------|-2-2-4--4|---------|----------| - 4 .
A|-2-2-4--4|-0-0-0--0|-2-2-4--4|-2-2-4--4-|
E|-0-0-0--0|---------|-0-0-0--0|-0-0-0--0-|
堠 ࠠ !

Coda.

1st. Guitar
E|--------|
H|--------|
G|--------| 8
D|--------|
A|-2-2-4-4|
E|-0-0-0-0|

2nd. Guitar
E|-------|-------|-----5-5|--------|-----5-5|--------|-----5-5-|
H|-------|-------|-----8-5|--------|-----8-5|--------|-----8-5-|
G|-------|-------|-----6-6|--------|-----6-6|--------|-----6-6-|
D|-------|-------|-----5-5|--------|-----5-5|--------|-----5-5-|
A|-------|-------|-----7-7|--------|-----7-7|--------|-----7-7-|
E|-------|-------|--------|--------|--------|--------|---------|

2nd. Guitar
E|-----|-----------|-----|-----------|-----|-----------|-------|
H|b8r--|-----------|b8r--|-----------|b8r--|-----------|-b8r-5-|
G|----9|----7-----7|----9|----7-----7|----9|----7-----7|-------|
D|-----|7h9---7h9--|-----|7h9---7h9--|-----|7h9---7h9--|-------|
A|-----|-----------|-----|-----------|-----|-----------|-------|
E|-----|-----------|-----|-----------|-----|-----------|-------|

2nd. Guitar
E|--------|--------|----------|
H|-2-2-2-2|-2-2-2-2|-2-2------|
G|-4-4-4-4|-4-4-4-4|-4-4⁄2-0--|
D|--------|--------|---------2|
A|--------|--------|----------|
E|--------|--------|----------|

-----------------------------
|  , ,   |
|     http://akords.org     |
-----------------------------

 (: 0)
    :
  • ( )
  • (2 )
  •  
    , . '.

    ':*
    E-Mail:*
    :
    , : *
     
      

    BLIBL-