|  
 
:  
  : :  
      ?    

  |

akords.org » B » Bloodhound Gang » Jackass

Bloodhound Gang - Jackass 

Artist: The Bloodhound Gang
Song: Jackass
Tabbed by: Rick (RCGoalie1@aol.com)
AIM: rickrack 97


Verse:

E|------------------------------------------|
B|------------------------------------------|
G|------------------------------------------|
D|10-10-10-10-10-10-10-10-------------------| x 2
A|-8--8--8--8--8--8--8--8--8-8-8-8-8-8-8-8--|
E|-------------------------6-6-6-6-6-6-6-6--|
cont.
E|------------------------------------------------------------------|
B|------------------------------------------------------------------|
G|-7-7-7-7-7-7-7-7-----------------5-5-5-5-5-5-5-5-5-5-5-5-5-5-5-5--|
D|-7-7-7-7-7-7-7-7-7-7-7-7-7-7-7-7-5-5-5-5-5-5-5-5-5-5-5-5-5-5-5-5--|
A|-5-5-5-5-5-5-5-5-7-7-7-7-7-7-7-7-3-3-3-3-3-3-3-3-3-3-3-3-3-3-3-3--|
E|-----------------5-5-5-5-5-5-5-5----------------------------------|

Chorus:

E|------------------------------------------|
B|------------------------------------------|
G|-----------10-10-10-10----------7--7-7-7--|
D|--8--8-8-8-10-10-10-10-8--8-8-8-7--7-7-7--|
A|--8--8-8-8--8--8--8--8-8--8-8-8-5--5-5-5--|
E|--6--6-6-6-------------6--6-6-6-----------|
|--| |---| |--| |--|
palm mute
cont.
E|---------------------------------------------------------------------------|
B|---------------------------------------------------------------------------|
G|----------------------------------7-7-7-7-7-7-7-5-5-5-5-5-5-5--------------|
D|-8-8-8-8-8-8-8-8-8-8-8-8-8-8-8-8--7-7-7-7-7-7-7-5-5-5-5-5-5-5--------------|
A|-8-8-8-8-8-8-8-8-8-8-8-8-8-8-8-8--5-5-5-5-5-5-5-3-3-3-3-3-3-3--------------|
E|-6-6-6-6-6-6-6-6-6-6-6-6-6-6-6-6-------------------------------------------|
|----------| |----------|
palm mute

The little riff on the slow part goes like this:

E|-------------------------|
B|-------------------------|
G|-10p8p7h8p7--7h8p7h8h10--|
D|-------------------------|
A|-------------------------|
E|-------------------------|


The part after that goes like this:

E|---------------------------------------------------------|
B|---------------------------------------------------------|
G|-5-5--5-5--5-5--5-5--5-----------------------------------|
D|-5-5--5-5--5-5--5-5--5--8-8-8-8-8-8-8-8-8-8-8-8-8-8-8-8--|
A|-3-3--3-3--3-3--3-3--3--8-8-8-8-8-8-8-8-8-8-8-8-8-8-8-8--|
E|------------------------6-6-6-6-6-6-6-6-6-6-6-6-6-6-6-6--|
cont.
E|--------------------------------------------------|
B|--------------------------------------------------|
G|-10-10-10-10-10-10-10-10-10-10-10-10-10-10-10-10--|
D|-10-10-10-10-10-10-10-10-10-10-10-10-10-10-10-10--|
A|--8--8--8--8--8--8--8--8--8--8--8--8--8--8--8--8--|
E|--------------------------------------------------|
cont.
E|---------------------------------------------------------------------------|
B|---------------------------------------------------------------------------|
G|---------------------------------7-7-7-7-7-7-7-7-7-7-7-7-7-7-7-7-----------|
D|-8-8-8-8-8-8-8-8-8-8-8-8-8-8-8-8-7-7-7-7-7-7-7-7-7-7-7-7-7-7-7-7-----------|
A|-8-8-8-8-8-8-8-8-8-8-8-8-8-8-8-8-5-5-5-5-5-5-5-5-5-5-5-5-5-5-5-5-----------|
E|-6-6-6-6-6-6-6-6-6-6-6-6-6-6-6-6-------------------------------------------|


That should be all. Later.

-----------------------------
|  , ,   |
|     http://akords.org     |
-----------------------------

 (: 0)
    :
  • Sweet Leaf
  • Anthem Part Two
  • Wrecked Him
  • Tomorrows Dream
  • Wasting Time
  •  
    , . '.

    ':*
    E-Mail:*
    :
    , : *
     
      

    BLIBL-