|  
 
:  
  : :  
      ?    

  |

akords.org » B » Bloodhound Gang » Its Tricky

Bloodhound Gang - Its Tricky 

Artist : Bloodhound Gang
Title : It's Tricky
Tuning : D A D G B E
Tab by : tim

this was all done by ear but its the best i've seen, so if you have
ANY corrections or any comments email or msn me at guitim69@hotmail.com

Intro :
e------------------------------------------------------------|
B------------------------------------------------------------|
G------7--------7--------------------------------------------|
D------x--------x--------------------------------------------|
A-0-0--5--0--0--5---0--0-------0--0-------0-0-0-0-0-0-0------| 1x
D-0-0-----0--0------0--0-------0--0-------0-0-0-0-0-0-0------|

chorus :

e------------------------------------------------------|
B------------------------------------------------------|
G--------7b--------7b---------7b-----------------------|
D-0-0-0--x---0-0-0-x----0-0-0-x----5-5-3-5-3-0---------|
A-0-0-0--5b--0-0-0-5b---0-0-0-5b---5-5-3-5-3-0---------|
D-0-0-0------0-0-0------0-0-0------5-5-3-5-3-0---------| 2x

00:21

verse :
pm_________________
e-------------------------------------------------------|
B-------------------------------------------------------|
G----7---------7----------------------------------------|
D----x---------x----------------------------------------|
A-0--5----0-0--5----0--0-------0--0----0-0-0-0-0-0-0----| 2x
D-0-------0-0-------0--0-------0--0----0-0-0-0-0-0-0----|


chorus :

e------------------------------------------------------|
B------------------------------------------------------|
G--------7b--------7b---------7b-----------------------|
D-0-0-0--x---0-0-0-x----0-0-0-x----5-5-3-5-3-0---------|
A-0-0-0--5b--0-0-0-5b---0-0-0-5b---5-5-3-5-3-0---------|
D-0-0-0------0-0-0------0-0-0------5-5-3-5-3-0---------| 2x


00:47

verse :
pm_______________
e---------------------------------------------------------------|
B---------------------------------------------------------------|
G------7--5--------7-5------------------------------------------|
D------7--5-5-0----7-5--5--0----5--0----------------------------|
A--0-0-5--3-5-0----5-3--5--0----5--0------0-0-0-0-0-0-0-0-------|
D--0-0------5-0---------5--0----5--0------0-0-0-0-0-0-0-0-------| 2x


chorus :

e------------------------------------------------------|
B------------------------------------------------------|
G--------7b--------7b---------7b-----------------------|
D-0-0-0--x---0-0-0-x----0-0-0-x----5-5-3-5-3-0---------|
A-0-0-0--5b--0-0-0-5b---0-0-0-5b---5-5-3-5-3-0---------|
D-0-0-0------0-0-0------0-0-0------5-5-3-5-3-0---------| 2x


Drum solo 1:13

Bass solo 1:20


pm_______________________ pm_____________________
e-----------------------------------------------------------------------------------|
B-----------------------------------------------------------------------------------|
G---------------------------7-5--------7-5------------------------------------------|
D---------------------------7-5--5-0---7-5-5-0----5-0-------------------------------|
A-0-0-0-0-0-0-0-0-0-0-0-0---5-3--5-0---5-3-5-0----5-0----0-0-0-0-0-0-0-0-0-0-0------|
D-0-0-0-0-0-0-0-0-0-0-0-0--------5-0-------5-0----5-0----0-0-0-0-0-0-0-0-0-0-0------|

When i wake up people take up mostly all of my time 1:35

pm________________ pm_______________
e----------------------------------------------------------------------------|
B----------------------------------------------------------------------------|
G------------------------------------7--------7------------------------------|
D------------------------------------x--------x------------------------------|
A-0-0----0-0---0-0-0-0-0-0-0-0---0-0-5---0-0--5--0-0----0-0--0-0-0-0-0-0-0-0-|
D-0-0----0-0---0-0-0-0-0-0-0-0---0-0-----0-0-----0-0----0-0--0-0-0-0-0-0-0-0-|


pm_______________________
e----------------------------------------------------------------|
B----------------------------------------------------------------|
G--------7-5--------7-5------------------------------------------|
D--------7-5--5-0---7-5-5-0----5-0-------------------------------|
A-0-0----5-3--5-0---5-3-5-0----5-0----0-0-0-0-0-0-0-0-0-0-0------|
D-0-0---------5-0-------5-0----5-0----0-0-0-0-0-0-0-0-0-0-0------| 2x

chorus :

e------------------------------------------------------|
B------------------------------------------------------|
G--------7b--------7b---------7b-----------------------|
D-0-0-0--x---0-0-0-x----0-0-0-x----5-5-3-5-3-0---------|
A-0-0-0--5b--0-0-0-5b---0-0-0-5b---5-5-3-5-3-0---------|
D-0-0-0------0-0-0------0-0-0------5-5-3-5-3-0---------| 2x


2:12

verse :
pm_________________
e-------------------------------------------------------|
B-------------------------------------------------------|
G----7---------7----------------------------------------|
D----x---------x----------------------------------------|
A-0--5----0-0--5----0--0-------0--0----0-0-0-0-0-0-0----|
D-0-------0-0-------0--0-------0--0----0-0-0-0-0-0-0----|


End On :

e------------|
B------------|
G------------|
D------------|
A-0----------|
D-0----------|

-----------------------------
|  , ,   |
|     http://akords.org     |
-----------------------------

 (: 0)
    :
  • Wrecked Him
  • A New Hope
  • Go
  • Point Of View
  • Going Nowhere Slow
  •  
    , . '.

    ':*
    E-Mail:*
    :
    , : *
     
      

    BLIBL-