Зробити стартовою  |  Додати в вибране
 
Пошук по сайту:  
  логін: пароль:  
    Реєстрація на сайті   Нагадати пароль?    

Видавництво Симфонія | Книжкова фабрика

akords.org » B » Bloodhound Gang » I Hope You Die
Знайти необхідні акорди

Bloodhound Gang - I Hope You Die 5 табулатура

Artist: Bloodhound Gang
Title: 'I Hope You Die'
Album: Hooray For Boobies
Transcribed by: kickthebass aka dogg
Email: kickthebass@mail.ru

intro (both 2 guitars):
rythm guitar
e|--------------------------|
B|--------------------------|
G|-4-4--4--------7-7--7-----|
D|-4-4--4-5-5--5-7-7--7-7-7-|
A|-2-2--2-5-5--5-5-5--5-7-7-|
E|--------3-3--3--------5-5-|

e|------------------------------------------|
B|------------------------------------------|
G|---4-4--4--------7-7--7-------------------|
D|-7-4-4--4-5-5--5-7-7--7-7-7-7-7-7-7-7-7-7-|
A|-7-2-2--2-5-5--5-5-5--5-7-7-7-7-7-7-7-7-7-|
E|-5--------3-3--3--------5-5-5-5-5-5-5-5-5-|

e|-----------------------------------------------------------------|
B|-----------------------------------------------------------------|
G|-4-4-4-4-4-4-4-4-----------------7-7-7-7-7-7-7-7-----------------| (x2)
D|-4-4-4-4-4-4-4-4-5-5-5-5-5-5-5-5-7-7-7-7-7-7-7-7-7-7-7-7-7-7-7-7-|
A|-2-2-2-2-2-2-2-2-5-5-5-5-5-5-5-5-5-5-5-5-5-5-5-5-7-7-7-7-7-7-7-7-|
E|-----------------3-3-3-3-3-3-3-3-----------------5-5-5-5-5-5-5-5-|

solo guitar
e|-----------------------------------------------------------------------|
B|-----------------------------------------------------------------------|
G|-----4-----4---4-------------------------7-----7---7-------------------| (x4)
D|-----------------------5-----5---5-------------------------7-----7---9-|
A|-2-2---2-2---2---2-------------------5-5---5-5---5---5-----------------|
E|-------------------3-3---3-3---3---3-------------------5-5---5-5---5---|


pre-verse:
guitar rythm:
e|--------------------------------|
B|--------------------------------|
G|-4--4------7--7-----------------|
D|-4--4-5--5-7--7-7-7-7-7-7-7-7-7-|
A|-2--2-5--5-5--5-7-7-7-7-7-7-7-7-|
E|------3--3------5-5-5-5-5-5-5-5-|

guitar solo:
e|--------------2-4-4-4-4-4-4-4-4-|
B|---------4-6--------------------|
G|-3--5-6-------------------------|
D|--------------------------------|
A|--------------------------------|
E|--------------------------------|


verse:
e|-----------------------------------------------------------------|
B|-----------------------------------------------------------------|
G|-4-4-4-4-4-4-4-4-----------------7-7-7-7-7-7-7-7-----------------| (x10)
D|-4-4-4-4-4-4-4-4-5-5-5-5-5-5-5-5-7-7-7-7-7-7-7-7-7-7-7-7-7-7-7-7-|
A|-2-2-2-2-2-2-2-2-5-5-5-5-5-5-5-5-5-5-5-5-5-5-5-5-7-7-7-7-7-7-7-7-|
E|-----------------3-3-3-3-3-3-3-3-----------------5-5-5-5-5-5-5-5-|


chorus:
e|---------------------------------|
B|---------------------------------|
G|---------------------------------|
D|-4-4-4-4-4-4-4-4-5-5-5-5-5-5-5-5-|
A|-4-4-4-4-4-4-4-4-5-5-5-5-5-5-5-5-|
E|-2-2-2-2-2-2-2-2-3-3-3-3-3-3-3-3-|

e|-----------------------------|
B|-7--7--7-8-7-5-7--7--7-8-7-5-|
G|-----------------------------|
D|-----------------------------|
A|-----------------------------|
E|-----------------------------|

e|---------------------------------|
B|---------------------------------|
G|---------------------------------|
D|-4-4-4-4-4-4-4-4-5-5-5-5-5-5-5-5-|
A|-4-4-4-4-4-4-4-4-5-5-5-5-5-5-5-5-|
E|-2-2-2-2-2-2-2-2-3-3-3-3-3-3-3-3-|

e|-----------------|
B|-7--7--7-8-7-5-7-|
G|-----------------|
D|-----------------|
A|-----------------|
E|-----------------|


interlude (both 2 guitars):
rythm guitar
e|-----------------------------------------------------------------|
B|-----------------------------------------------------------------|
G|-4-4-4-4-4-4-4-4-----------------7-7-7-7-7-7-7-7-----------------| (x2)
D|-4-4-4-4-4-4-4-4-5-5-5-5-5-5-5-5-7-7-7-7-7-7-7-7-7-7-7-7-7-7-7-7-|
A|-2-2-2-2-2-2-2-2-5-5-5-5-5-5-5-5-5-5-5-5-5-5-5-5-7-7-7-7-7-7-7-7-|
E|-----------------3-3-3-3-3-3-3-3-----------------5-5-5-5-5-5-5-5-|

solo guitar
e|-----------------------------------------------------------------------|
B|-----------------------------------------------------------------------|
G|-----4-----4---4-------------------------7-----7---7-------------------| (x2)
D|-----------------------5-----5---5-------------------------7-----7---9-|
A|-2-2---2-2---2---2-------------------5-5---5-5---5---5-----------------|
E|-------------------3-3---3-3---3---3-------------------5-5---5-5---5---|


pre-verse:
guitar rythm:
e|--------------------------------|
B|--------------------------------|
G|-4--4------7--7-----------------|
D|-4--4-5--5-7--7-7-7-7-7-7-7-7-7-|
A|-2--2-5--5-5--5-7-7-7-7-7-7-7-7-|
E|------3--3------5-5-5-5-5-5-5-5-|

guitar solo:
e|--------------2-4-4-4-4-4-4-4-4-|
B|---------4-6--------------------|
G|-3--5-6-------------------------|
D|--------------------------------|
A|--------------------------------|
E|--------------------------------|


verse:
e|-----------------------------------------------------------------|
B|-----------------------------------------------------------------|
G|-4-4-4-4-4-4-4-4-----------------7-7-7-7-7-7-7-7-----------------| (x10)
D|-4-4-4-4-4-4-4-4-5-5-5-5-5-5-5-5-7-7-7-7-7-7-7-7-7-7-7-7-7-7-7-7-|
A|-2-2-2-2-2-2-2-2-5-5-5-5-5-5-5-5-5-5-5-5-5-5-5-5-7-7-7-7-7-7-7-7-|
E|-----------------3-3-3-3-3-3-3-3-----------------5-5-5-5-5-5-5-5-|


chorus (both 2 guitars):
rythm guitar
riff one
e|---------------------------------|
B|---------------------------------|
G|---------------------------------|
D|-4-4-4-4-4-4-4-4-5-5-5-5-5-5-5-5-|
A|-4-4-4-4-4-4-4-4-5-5-5-5-5-5-5-5-|
E|-2-2-2-2-2-2-2-2-3-3-3-3-3-3-3-3-|

riff two
e|-----------------|
B|-----------------|
G|-5-5-5-5-5-5-5-5-|
D|-5-5-5-5-5-5-5-5-|
A|-3-3-3-3-3-3-3-3-|
E|-----------------|

solo guitar (when becomes riff two)
e|-----------------------------|
B|-7--7--7-8-7-5-7--7--7-8-7-5-|
G|-----------------------------|
D|-----------------------------|
A|-----------------------------|
E|-----------------------------|

rythm guitar
riff one
e|---------------------------------|
B|---------------------------------|
G|---------------------------------|
D|-4-4-4-4-4-4-4-4-5-5-5-5-5-5-5-5-|
A|-4-4-4-4-4-4-4-4-5-5-5-5-5-5-5-5-|
E|-2-2-2-2-2-2-2-2-3-3-3-3-3-3-3-3-|

riff two
e|-----------|
B|-----------|
G|-5-5-5-5-5-|
D|-5-5-5-5-5-|
A|-3-3-3-3-3-|
E|-----------|

solo guitar (when becomes riff two)
e|-----------------|
B|-7--7--7-8-7-5-7-|
G|-----------------|
D|-----------------|
A|-----------------|
E|-----------------|


interlude (both 2 guitars):
rythm guitar
e|-----------------------------------------------------------------|
B|-----------------------------------------------------------------|
G|-4-4-4-4-4-4-4-4-----------------7-7-7-7-7-7-7-7-----------------| (x2)
D|-4-4-4-4-4-4-4-4-5-5-5-5-5-5-5-5-7-7-7-7-7-7-7-7-7-7-7-7-7-7-7-7-|
A|-2-2-2-2-2-2-2-2-5-5-5-5-5-5-5-5-5-5-5-5-5-5-5-5-7-7-7-7-7-7-7-7-|
E|-----------------3-3-3-3-3-3-3-3-----------------5-5-5-5-5-5-5-5-|

solo guitar
e|-----------------------------------------------------------------------|
B|-----------------------------------------------------------------------|
G|-----4-----4---4-------------------------7-----7---7-------------------| (x2)
D|-----------------------5-----5---5-------------------------7-----7---9-|
A|-2-2---2-2---2---2-------------------5-5---5-5---5---5-----------------|
E|-------------------3-3---3-3---3---3-------------------5-5---5-5---5---|


interlude 2 (both 2 guitars):
rythm guitar
e|--------------------------|
B|--------------------------|
G|-4-4--4--------7-7--7-----|
D|-4-4--4-5-5--5-7-7--7-7-7-|
A|-2-2--2-5-5--5-5-5--5-7-7-|
E|--------3-3--3--------5-5-|

e|------------------------------------------|
B|------------------------------------------|
G|---4-4--4--------7-7--7-------------------|
D|-7-4-4--4-5-5--5-7-7--7-7-7-7-7-7-7-7-7-7-|
A|-7-2-2--2-5-5--5-5-5--5-7-7-7-7-7-7-7-7-7-|
E|-5--------3-3--3--------5-5-5-5-5-5-5-5-5-|

solo guitar
e|-----------------------------------------------------------------------|
B|-----------------------------------------------------------------------|
G|-----4-----4---4-------------------------7-----7---7-------------------| (x2)
D|-----------------------5-----5---5-------------------------7-----7---9-|
A|-2-2---2-2---2---2-------------------5-5---5-5---5---5-----------------|
E|-------------------3-3---3-3---3---3-------------------5-5---5-5---5---|


hope u die ;)
thanx 2 hiv, trash, kashmir

-----------------------------
|  акорди, навчання, відео  |
|     http://akords.org     |
-----------------------------

 (голосів: 0)
   Інші пісні:
  • High Voltage
  • Are You Ready
  • Badlands
  • Jailbreak
  • Something
  •  
    Шановний відвідувач, Ви зайшли на сайт як незареєстрований користувач. Ми рекомендуємо Вам реєструватися або зайти на сайт під своїм ім'ям.

    Додавання коментаря

    Ім'я:*
    E-Mail:*
    Коментар:
    Введіть два слова, показані на зображенні: *
     
      

    BLIBL-створити сайт безкоштовно