|  
 
:  
  : :  
      ?    

  |

akords.org » B » Bloodhound Gang » Hell Yeah

Bloodhound Gang - Hell Yeah 2

Written by Coolcatch: coolcatch@hotmail.com

HELL YEAH
As recorded by Bloodhound Gang
(From the 1999 Album HOORAY FOR BOOBIES)


Intro/Chorus
Moderately Q=94
G5 B5/F# D5/A
4/4
Gtr I
|---------|-----------------|------------------|
|---------|-----------------|---------3-3-3-3--|
|---------|-0-0-0-0-0-0-0-0-|-4-4-4-4-2-2-2-2--|
|---------|-0-0-0-0-0-0-0-0-|-4-4-4-4-0-0-0-0--|
|---------|-----------------|-2-2-2-2-0-0-0-0--|
|---------|-3-3-3-3-3-3-3-3-|-2-2-2-2----------|


G5 B5/F# D5/A G5 B5/F# D5/A
|-----------------|-----------------|-----------------|-----------------|
|-----------------|---------3-3-3-3-|-----------------|---------3-3-3-3-|
|-0-0-0-0-0-0-0-0-|-4-4-4-4-2-2-2-2-|-0-0-0-0-0-0-0-0-|-4-4-4-4-2-2-2-2-|
|-0-0-0-0-0-0-0-0-|-4-4-4-4-0-0-0-0-|-0-0-0-0-0-0-0-0-|-4-4-4-4-0-0-0-0-|
|-----------------|-2-2-2-2-0-0-0-0-|-----------------|-2-2-2-2-0-0-0-0-|
|-3-3-3-3-3-3-3-3-|-2-2-2-2---------|-3-3-3-3-3-3-3-3-|-2-2-2-2---------|


G5 B5/F# D5/A
|-----------------|-----------------|
|-----------------|---------3-3-3-3-|
|-0-0-0-0-0-0-0-0-|-4-4-4-4-2-2-2-2-|
|-0-0-0-0-0-0-0-0-|-4-4-4-4-0-0-0-0-|
|-----------------|-2-2-2-2-0-0-0-0-|
|-3-3-3-3-3-3-3-3-|-2-2-2-2---------|


Verses
G B D G B D
Gtr II
||--3-3-3-3-3-3-3-3-|---------2-2-2-2-|-3-3-3-3-3-3-3-3-|---------2-2-2-2--|
||o-0-0-0-0-0-0-0-0-|-4-4-4-4-3-3-3-3-|-0-0-0-0-0-0-0-0-|-4-4-4-4-3-3-3-3--|
||--0-0-0-0-0-0-0-0-|-4-4-4-4-2-2-2-2-|-0-0-0-0-0-0-0-0-|-4-4-4-4-2-2-2-2--|
||--0-0-0-0-0-0-0-0-|-4-4-4-4-0-0-0-0-|-0-0-0-0-0-0-0-0-|-4-4-4-4-0-0-0-0--|
||o-2-2-2-2-2-2-2-2-|-2-2-2-2---------|-2-2-2-2-2-2-2-2-|-2-2-2-2----------|
||--3-3-3-3-3-3-3-3-|-----------------|-3-3-3-3-3-3-3-3-|------------------|
|
| Gtr I
||------------------|-----------------|-----------------|------------------|
||o-----------------|-----------------|-----------------|------------------|
||--0---------------|-----------------|-----------------|------------------|
||--0---------------|-----------------|-----------------|------------------|
||o-----------------|-----------------|-----------------|------------------|
||--3---------------|-----------------|-----------------|------------------|


G B D G B D
|-3-3-3-3-3-3-3-3-|---------2-2-2-2-|-3-3-3-3-3-3-3-3-|---------2-2-2-2-|
|-0-0-0-0-0-0-0-0-|-4-4-4-4-3-3-3-3-|-0-0-0-0-0-0-0-0-|-4-4-4-4-3-3-3-3-|
|-0-0-0-0-0-0-0-0-|-4-4-4-4-2-2-2-2-|-0-0-0-0-0-0-0-0-|-4-4-4-4-2-2-2-2-|
|-0-0-0-0-0-0-0-0-|-4-4-4-4-0-0-0-0-|-0-0-0-0-0-0-0-0-|-4-4-4-4-0-0-0-0-|
|-2-2-2-2-2-2-2-2-|-2-2-2-2---------|-2-2-2-2-2-2-2-2-|-2-2-2-2---------|
|-3-3-3-3-3-3-3-3-|-----------------|-3-3-3-3-3-3-3-3-|-----------------|


G B D G B D
|-3-3-3-3-3-3-3-3-|---------2-2-2-2-|-3-3-3-3-3-3-3-3-|---------2-2-2-2-|
|-0-0-0-0-0-0-0-0-|-4-4-4-4-3-3-3-3-|-0-0-0-0-0-0-0-0-|-4-4-4-4-3-3-3-3-|
|-0-0-0-0-0-0-0-0-|-4-4-4-4-2-2-2-2-|-0-0-0-0-0-0-0-0-|-4-4-4-4-2-2-2-2-|
|-0-0-0-0-0-0-0-0-|-4-4-4-4-0-0-0-0-|-0-0-0-0-0-0-0-0-|-4-4-4-4-0-0-0-0-|
|-2-2-2-2-2-2-2-2-|-2-2-2-2---------|-2-2-2-2-2-2-2-2-|-2-2-2-2---------|
|-3-3-3-3-3-3-3-3-|-----------------|-3-3-3-3-3-3-3-3-|-----------------|
|
| Gtr I
|-----------------|-----------------|-----------------|-----------------|
|-----------------|---------3-3-3-3-|-----------------|---------3-3-3-3-|
|-0-0-0-0-0-0-0-0-|-4-4-4-4-2-2-2-2-|-0-0-0-0-0-0-0-0-|-4-4-4-4-2-2-2-2-|
|-0-0-0-0-0-0-0-0-|-4-4-4-4-0-0-0-0-|-0-0-0-0-0-0-0-0-|-4-4-4-4-0-0-0-0-|
|-----------------|-2-2-2-2-0-0-0-0-|-----------------|-2-2-2-2-0-0-0-0-|
|-3-3-3-3-3-3-3-3-|-2-2-2-2---------|-3-3-3-3-3-3-3-3-|-2-2-2-2---------|


G B D G B D
|-3-3-3-3-3-3-3-3-|---------2-2-2-2-|-3-3-3-3-3-3-3-3-|------2----|
|-0-0-0-0-0-0-0-0-|-4-4-4-4-3-3-3-3-|-0-0-0-0-0-0-0-0-|-4----3----|
|-0-0-0-0-0-0-0-0-|-4-4-4-4-2-2-2-2-|-0-0-0-0-0-0-0-0-|-4----2----|
|-0-0-0-0-0-0-0-0-|-4-4-4-4-0-0-0-0-|-0-0-0-0-0-0-0-0-|-4----0----|
|-2-2-2-2-2-2-2-2-|-2-2-2-2---------|-2-2-2-2-2-2-2-2-|-2---------|
|-3-3-3-3-3-3-3-3-|-----------------|-3-3-3-3-3-3-3-3-|-----------|
|
|-----------------|-----------------|-----------------|-----------|
|-----------------|---------3-3-3-3-|-----------------|------3----|
|-0-0-0-0-0-0-0-0-|-4-4-4-4-2-2-2-2-|-0-0-0-0-0-0-0-0-|-4----2----|
|-0-0-0-0-0-0-0-0-|-4-4-4-4-0-0-0-0-|-0-0-0-0-0-0-0-0-|-4----0----|
|-----------------|-2-2-2-2-0-0-0-0-|-----------------|-2----0----|
|-3-3-3-3-3-3-3-3-|-2-2-2-2---------|-3-3-3-3-3-3-3-3-|-2---------|


Chorus
G B D G B D
|-3-3-3-3-3-3-3-3-|---------2-2-2-2-|-3-3-3-3-3-3-3-3-|---------2-2-2-2-|
|-0-0-0-0-0-0-0-0-|-4-4-4-4-3-3-3-3-|-0-0-0-0-0-0-0-0-|-4-4-4-4-3-3-3-3-|
|-0-0-0-0-0-0-0-0-|-4-4-4-4-2-2-2-2-|-0-0-0-0-0-0-0-0-|-4-4-4-4-2-2-2-2-|
|-0-0-0-0-0-0-0-0-|-4-4-4-4-0-0-0-0-|-0-0-0-0-0-0-0-0-|-4-4-4-4-0-0-0-0-|
|-2-2-2-2-2-2-2-2-|-2-2-2-2---------|-2-2-2-2-2-2-2-2-|-2-2-2-2---------|
|-3-3-3-3-3-3-3-3-|-----------------|-3-3-3-3-3-3-3-3-|-----------------|
|
|-----------------|-----------------|-----------------|-----------------|
|-----------------|---------3-3-3-3-|-----------------|---------3-3-3-3-|
|-0-0-0-0-0-0-0-0-|-4-4-4-4-2-2-2-2-|-0-0-0-0-0-0-0-0-|-4-4-4-4-2-2-2-2-|
|-0-0-0-0-0-0-0-0-|-4-4-4-4-0-0-0-0-|-0-0-0-0-0-0-0-0-|-4-4-4-4-0-0-0-0-|
|-----------------|-2-2-2-2-0-0-0-0-|-----------------|-2-2-2-2-0-0-0-0-|
|-3-3-3-3-3-3-3-3-|-2-2-2-2---------|-3-3-3-3-3-3-3-3-|-2-2-2-2---------|


G B D G B D
|-3-3-3-3-3-3-3-3-|---------2-2-2-2-|-3-3-3-3-3-3-3-3-|---------2-2-2-2--||
|-0-0-0-0-0-0-0-0-|-4-4-4-4-3-3-3-3-|-0-0-0-0-0-0-0-0-|-4-4-4-4-3-3-3-3-o||
|-0-0-0-0-0-0-0-0-|-4-4-4-4-2-2-2-2-|-0-0-0-0-0-0-0-0-|-4-4-4-4-2-2-2-2--||
|-0-0-0-0-0-0-0-0-|-4-4-4-4-0-0-0-0-|-0-0-0-0-0-0-0-0-|-4-4-4-4-0-0-0-0--||
|-2-2-2-2-2-2-2-2-|-2-2-2-2---------|-2-2-2-2-2-2-2-2-|-2-2-2-2---------o||
|-3-3-3-3-3-3-3-3-|-----------------|-3-3-3-3-3-3-3-3-|------------------||
|
|-----------------|-----------------|-----------------|------------------||
|-----------------|---------3-3-3-3-|-----------------|---------3-3-3-3-o||
|-0-0-0-0-0-0-0-0-|-4-4-4-4-2-2-2-2-|-0-0-0-0-0-0-0-0-|-4-4-4-4-2-2-2-2--||
|-0-0-0-0-0-0-0-0-|-4-4-4-4-0-0-0-0-|-0-0-0-0-0-0-0-0-|-4-4-4-4-0-0-0-0--||
|-----------------|-2-2-2-2-0-0-0-0-|-----------------|-2-2-2-2-0-0-0-0-o||
|-3-3-3-3-3-3-3-3-|-2-2-2-2---------|-3-3-3-3-3-3-3-3-|-2-2-2-2----------||


C G
|-0-0-0-0-0-0-0-0-|-0-0-0-0-0-0-0-0-|-3-3-3-3-3-3-3-3-|-3-3-3-3-3-3-3-3-|
|-1-1-1-1-1-1-1-1-|-1-1-1-1-1-1-1-1-|-0-0-0-0-0-0-0-0-|-0-0-0-0-0-0-0-0-|
|-0-0-0-0-0-0-0-0-|-0-0-0-0-0-0-0-0-|-0-0-0-0-0-0-0-0-|-0-0-0-0-0-0-0-0-|
|-2-2-2-2-2-2-2-2-|-2-2-2-2-2-2-2-2-|-0-0-0-0-0-0-0-0-|-0-0-0-0-0-0-0-0-|
|-3-3-3-3-3-3-3-3-|-3-3-3-3-3-3-3-3-|-2-2-2-2-2-2-2-2-|-2-2-2-2-2-2-2-2-|
|-----------------|-----------------|-3-3-3-3-3-3-3-3-|-3-3-3-3-3-3-3-3-|
|
|-----------------|-----------------|-----------------|-----------------|
|-----------------|-----------------|-----------------|-----------------|
|-5---5---5---5---|-5---------------|-----------------|-----------------|
|-5---5---5---5---|-3---------------|-----------------|-----------------|
|-3---3---3---3---|-3---------------|-----------------|-----------------|
|-----------------|-----------------|-----------------|-----------------|


Am E
|-0-0-0-0-0-0-0-0-|-0-0-0-0-0-0-0-0-|-0-0-0-0-0-0-0-0-|-0-0-0-0-0-0-0-0-|
|-1-1-1-1-1-1-1-1-|-1-1-1-1-1-1-1-1-|-0-0-0-0-0-0-0-0-|-0-0-0-0-0-0-0-0-|
|-2-2-2-2-2-2-2-2-|-2-2-2-2-2-2-2-2-|-1-1-1-1-1-1-1-1-|-1-1-1-1-1-1-1-1-|
|-2-2-2-2-2-2-2-2-|-2-2-2-2-2-2-2-2-|-2-2-2-2-2-2-2-2-|-2-2-2-2-2-2-2-2-|
|-0-0-0-0-0-0-0-0-|-0-0-0-0-0-0-0-0-|-2-2-2-2-2-2-2-2-|-2-2-2-2-2-2-2-2-|
|-----------------|-----------------|-0-0-0-0-0-0-0-0-|-0-0-0-0-0-0-0-0-|


C G
|-0-0-0-0-0-0-0-0-|-0-0-0-0-0-0-0-0-|-3-3-3-3-3-3-3-3-|-3-3-3-3-3-3-3-3-|
|-1-1-1-1-1-1-1-1-|-1-1-1-1-1-1-1-1-|-0-0-0-0-0-0-0-0-|-0-0-0-0-0-0-0-0-|
|-0-0-0-0-0-0-0-0-|-0-0-0-0-0-0-0-0-|-0-0-0-0-0-0-0-0-|-0-0-0-0-0-0-0-0-|
|-2-2-2-2-2-2-2-2-|-2-2-2-2-2-2-2-2-|-0-0-0-0-0-0-0-0-|-0-0-0-0-0-0-0-0-|
|-3-3-3-3-3-3-3-3-|-3-3-3-3-3-3-3-3-|-2-2-2-2-2-2-2-2-|-2-2-2-2-2-2-2-2-|
|-----------------|-----------------|-3-3-3-3-3-3-3-3-|-3-3-3-3-3-3-3-3-|
|
| Gtr I
|-----------------|-----------------|-----------------|-----------------|
|-----------------|-----------------|-----------------|-----------------|
|-5---5---5---5---|-5---------------|-----------------|-----------------|
|-5---5---5---5---|-3---------------|-----------------|-----------------|
|-3---3---3---3---|-3---------------|-----------------|-----------------|
|-----------------|-----------------|-----------------|-----------------|


Am E
|-0-0-0-0-0-0-0-0-|-0-0-0-0-0-0-0-0-|-0-0-0-0-0-0-0-0-|-0--------|
|-1-1-1-1-1-1-1-1-|-1-1-1-1-1-1-1-1-|-0-0-0-0-0-0-0-0-|-0--------|
|-2-2-2-2-2-2-2-2-|-2-2-2-2-2-2-2-2-|-1-1-1-1-1-1-1-1-|-1--------|
|-2-2-2-2-2-2-2-2-|-2-2-2-2-2-2-2-2-|-2-2-2-2-2-2-2-2-|-2--------|
|-0-0-0-0-0-0-0-0-|-0-0-0-0-0-0-0-0-|-2-2-2-2-2-2-2-2-|-2--------|
|-----------------|-----------------|-0-0-0-0-0-0-0-0-|-0--------|


C G
Gtr II
|-0-0-0-0-0-0-0-0-|-0-0-0-0-0-0-0-0-|-3-3-3-3-3-3-3-3-|-3-3-3-3-3-3-3-3-|
|-1-1-1-1-1-1-1-1-|-1-1-1-1-1-1-1-1-|-0-0-0-0-0-0-0-0-|-0-0-0-0-0-0-0-0-|
|-0-0-0-0-0-0-0-0-|-0-0-0-0-0-0-0-0-|-0-0-0-0-0-0-0-0-|-0-0-0-0-0-0-0-0-|
|-2-2-2-2-2-2-2-2-|-2-2-2-2-2-2-2-2-|-0-0-0-0-0-0-0-0-|-0-0-0-0-0-0-0-0-|
|-3-3-3-3-3-3-3-3-|-3-3-3-3-3-3-3-3-|-2-2-2-2-2-2-2-2-|-2-2-2-2-2-2-2-2-|
|-----------------|-----------------|-3-3-3-3-3-3-3-3-|-3-3-3-3-3-3-3-3-|
|
| Gtr I
|-----------------|-----------------|-----------------|-----------------|
|-----------------|-----------------|-----------------|-----------------|
|-----------------|-----------------|-----------------|-----------------|
|-5-5-5-5-5-5-5-5-|-5-5-5-5-5-5-5-5-|-----------------|-----------------|
|-3-3-3-3-3-3-3-3-|-3-3-3-3-3-3-3-3-|-5-5-5-5-5-5-5-5-|-5-5-5-5-5-5-5-5-|
|-----------------|-----------------|-3-3-3-3-3-3-3-3-|-3-3-3-3-3-3-3-3-|


Am E
|-0-0-0-0-0-0-0-0-|-0-0-0-0-0-0-0-0-|-0-0-0-0-0-0-0-0-|-0-0-0-0-0-0-0-0-|
|-1-1-1-1-1-1-1-1-|-1-1-1-1-1-1-1-1-|-0-0-0-0-0-0-0-0-|-0-0-0-0-0-0-0-0-|
|-2-2-2-2-2-2-2-2-|-2-2-2-2-2-2-2-2-|-1-1-1-1-1-1-1-1-|-1-1-1-1-1-1-1-1-|
|-2-2-2-2-2-2-2-2-|-2-2-2-2-2-2-2-2-|-2-2-2-2-2-2-2-2-|-2-2-2-2-2-2-2-2-|
|-0-0-0-0-0-0-0-0-|-0-0-0-0-0-0-0-0-|-2-2-2-2-2-2-2-2-|-2-2-2-2-2-2-2-2-|
|-----------------|-----------------|-0-0-0-0-0-0-0-0-|-0-0-0-0-0-0-0-0-|
|
|-----------------|-----------------|-----------------|-----------------|
|-----------------|-----------------|-----------------|-----------------|
|-----------------|-----------------|-----------------|-----------------|
|-2-2-2-2-2-2-2-2-|-2-2-2-2-2-2-2-2-|-2-2-2-2-2-2-2-2-|-2-2-2-2-2-2-2-2-|
|-0-0-0-0-0-0-0-0-|-0-0-0-0-0-0-0-0-|-2-2-2-2-2-2-2-2-|-2-2-2-2-2-2-2-2-|
|-----------------|-----------------|-0-0-0-0-0-0-0-0-|-0-0-0-0-0-0-0-0-|


C G
|-0-0-0-0-0-0-0-0-|-0-0-0-0-0-0-0-0-|-3-3-3-3-3-3-3-3-|-3-3-3-3-3-3-3-3-|
|-1-1-1-1-1-1-1-1-|-1-1-1-1-1-1-1-1-|-0-0-0-0-0-0-0-0-|-0-0-0-0-0-0-0-0-|
|-0-0-0-0-0-0-0-0-|-0-0-0-0-0-0-0-0-|-0-0-0-0-0-0-0-0-|-0-0-0-0-0-0-0-0-|
|-2-2-2-2-2-2-2-2-|-2-2-2-2-2-2-2-2-|-0-0-0-0-0-0-0-0-|-0-0-0-0-0-0-0-0-|
|-3-3-3-3-3-3-3-3-|-3-3-3-3-3-3-3-3-|-2-2-2-2-2-2-2-2-|-2-2-2-2-2-2-2-2-|
|-----------------|-----------------|-3-3-3-3-3-3-3-3-|-3-3-3-3-3-3-3-3-|
|
|-----------------|-----------------|-----------------|-----------------|
|-----------------|-----------------|-----------------|-----------------|
|-----------------|-----------------|-----------------|-----------------|
|-5-5-5-5-5-5-5-5-|-5-5-5-5-5-5-5-5-|-----------------|-----------------|
|-3-3-3-3-3-3-3-3-|-3-3-3-3-3-3-3-3-|-5-5-5-5-5-5-5-5-|-5-5-5-5-5-5-5-5-|
|-----------------|-----------------|-3-3-3-3-3-3-3-3-|-3-3-3-3-3-3-3-3-|


Am E
|-0-0-0-0-0-0-0-0-|-0-0-0-0-0-0-0-0-|-0-0-0-0-0-0-0-0-|-0--------|
|-1-1-1-1-1-1-1-1-|-1-1-1-1-1-1-1-1-|-0-0-0-0-0-0-0-0-|-0--------|
|-2-2-2-2-2-2-2-2-|-2-2-2-2-2-2-2-2-|-1-1-1-1-1-1-1-1-|-1--------|
|-2-2-2-2-2-2-2-2-|-2-2-2-2-2-2-2-2-|-2-2-2-2-2-2-2-2-|-2--------|
|-0-0-0-0-0-0-0-0-|-0-0-0-0-0-0-0-0-|-2-2-2-2-2-2-2-2-|-2--------|
|-----------------|-----------------|-0-0-0-0-0-0-0-0-|-0--------|
|
|-----------------|-----------------|-----------------|----------|
|-----------------|-----------------|-----------------|----------|
|-----------------|-----------------|-----------------|----------|
|-2-2-2-2-2-2-2-2-|-2-2-2-2-2-2-2-2-|-2-2-2-2-2-2-2-2-|-2--------|
|-0-0-0-0-0-0-0-0-|-0-0-0-0-0-0-0-0-|-2-2-2-2-2-2-2-2-|-2--------|
|-----------------|-----------------|-0-0-0-0-0-0-0-0-|-0--------|


C G
||--0-0-0-0-0-0-0-0-|-0-0-0-0-0-0-0-0-|-3-3-3-3-3-3-3-3-|-3-3-3-3-3-3-3-3--|
||o-1-1-1-1-1-1-1-1-|-1-1-1-1-1-1-1-1-|-0-0-0-0-0-0-0-0-|-0-0-0-0-0-0-0-0--|
||--0-0-0-0-0-0-0-0-|-0-0-0-0-0-0-0-0-|-0-0-0-0-0-0-0-0-|-0-0-0-0-0-0-0-0--|
||--2-2-2-2-2-2-2-2-|-2-2-2-2-2-2-2-2-|-0-0-0-0-0-0-0-0-|-0-0-0-0-0-0-0-0--|
||o-3-3-3-3-3-3-3-3-|-3-3-3-3-3-3-3-3-|-2-2-2-2-2-2-2-2-|-2-2-2-2-2-2-2-2--|
||------------------|-----------------|-3-3-3-3-3-3-3-3-|-3-3-3-3-3-3-3-3--|
|
||------------------|-----------------|-----------------|------------------|
||o-----------------|-----------------|-----------------|------------------|
||------------------|-----------------|-----------------|------------------|
||--5-5-5-5-5-5-5-5-|-5-5-5-5-5-5-5-5-|-----------------|------------------|
||o-3-3-3-3-3-3-3-3-|-3-3-3-3-3-3-3-3-|-5-5-5-5-5-5-5-5-|-5-5-5-5-5-5-5-5--|
||------------------|-----------------|-3-3-3-3-3-3-3-3-|-3-3-3-3-3-3-3-3--|


Am E
4x
|-0-0-0-0-0-0-0-0-|-0-0-0-0-0-0-0-0-|-0-0-0-0-0-0-0-0-|-0-0-0-0-0-0-0-0--||
|-1-1-1-1-1-1-1-1-|-1-1-1-1-1-1-1-1-|-0-0-0-0-0-0-0-0-|-0-0-0-0-0-0-0-0-o||
|-2-2-2-2-2-2-2-2-|-2-2-2-2-2-2-2-2-|-1-1-1-1-1-1-1-1-|-1-1-1-1-1-1-1-1--||
|-2-2-2-2-2-2-2-2-|-2-2-2-2-2-2-2-2-|-2-2-2-2-2-2-2-2-|-2-2-2-2-2-2-2-2--||
|-0-0-0-0-0-0-0-0-|-0-0-0-0-0-0-0-0-|-2-2-2-2-2-2-2-2-|-2-2-2-2-2-2-2-2-o||
|-----------------|-----------------|-0-0-0-0-0-0-0-0-|-0-0-0-0-0-0-0-0--||
|
| 4x
|-----------------|-----------------|-----------------|------------------||
|-----------------|-----------------|-----------------|-----------------o||
|-----------------|-----------------|-----------------|------------------||
|-2-2-2-2-2-2-2-2-|-2-2-2-2-2-2-2-2-|-2-2-2-2-2-2-2-2-|-2-2-2-2-2-2-2-2--||
|-0-0-0-0-0-0-0-0-|-0-0-0-0-0-0-0-0-|-2-2-2-2-2-2-2-2-|-2-2-2-2-2-2-2-2-o||
|-----------------|-----------------|-0-0-0-0-0-0-0-0-|-0-0-0-0-0-0-0-0--||

-----------------------------
|  , ,   |
|     http://akords.org     |
-----------------------------

 (: 0)
    :
  • Hell Yeah
  • Three Point One Four
  • The Ballad Of Chasey Lain
  • Three Point One Four
  • She Loves You
  •  
    , . '.

    ':*
    E-Mail:*
    :
    , : *
     
      

    BLIBL-