|  
 
:  
  : :  
      ?    

  |

akords.org » B » Bloodhound Gang » Foxtrot Uniform Charlie Kilo

Bloodhound Gang - Foxtrot Uniform Charlie Kilo 5

-------------------------------------------------------------------------------
Foxtrot Uniform Charlie Kilo - Bloodhound Gang
-------------------------------------------------------------------------------
Tabbed by: Joe Morris
Email: j0eh4x@gmail.com

Hey i've been looking for a decent tab of this and it seems I couldnt find one so i
it myself. I tabbed it with the whole guitar tuned down a half step... because i can please
me with comments or corrections
(This is my first tab)
In the final verse there are two guitars but if you have one guitarist just play part
and switch to the final chord when saying pronto
Tuning: Eb Ab Db Gb Bb Eb

:::INTRO:::
eb|---------------------------------------------------------|
Bb|---------------------------------------------------------|
Gb|---------------------------------------------------------|
Db|--------9-9-7-------9-9----------9-9------------10-10-9--|x2
Ab|--10-10---------7-7-----10-----------10------------------|
Eb|-----------------------------7-7----------10-10----------|

:::VERSE1:::
eb|-------------------------------------------------------------------|
Bb|-------------------------------------------------------------------|
Gb|-------------------------------x-x-4-4-x-x-4-4-x-x-7-7-x-x-7-7-----|
Db|---5-5-x-x-5-5-x-x-2-2-x-x-2-2-x-x-4-4-x-x-4-4-x-x-7-7-x-x-7-7-----|x4
Ab|---5-5-x-x-5-5-x-x-2-2-x-x-2-2-x-x-2-2-x-x-2-2-x-x-5-5-x-x-5-5-----|
Eb|---3-3-x-x-3-3-x-x-0-0-x-x-0-0-------------------------------------|
Up Down Strumming

:::PRE-CHORUS:::
eb|--------------------------------------------|
Bb|--------------------------------------------|
Gb|----------------------------------7-7-7-7---|
Db|-10-10-10-10-10-10-10-10--5-5-5-5-7-7-7-7---|x2
Ab|-10-10-10-10-10-10-10-10--5-5-5-5-5-5-5-5---|
Eb|-8--8--8--8--8--8--8--8---3-3-3-3-----------|

:::CHORUS:::
eb|------------------------------------------------------------------------|
Bb|------------------------------------------------------------------------|
Gb|-------------------------------------4-4-4-4-4-4-4-4--7-7-7-7-7-7-7-7---|
Db|---5-5-5-5-5-5-5-5--2-2-2-2-2-2-2-2--4-4-4-4-4-4-4-4--7-7-7-7-7-7-7-7---|x2
Ab|---5-5-5-5-5-5-5-5--2-2-2-2-2-2-2-2--2-2-2-2-2-2-2-2--5-5-5-5-5-5-5-5---|
Eb|---3-3-3-3-3-3-3-3--0-0-0-0-0-0-0-0-------------------------------------|

:::PRE-VERSE:::
eb|---------------------------------------------------------|
Bb|---------------------------------------------------------|
Gb|---------------------------------------------------------|
Db|--------9-9-7-------9-9----------9-9------------10-10-9--|x2
Ab|--10-10---------7-7-----10-----------10------------------|
Eb|-----------------------------7-7----------10-10----------|

:::VERSE2:::
eb|-------------------------------------------------------------------|
Bb|-------------------------------------------------------------------|
Gb|-------------------------------x-x-4-4-x-x-4-4-x-x-7-7-x-x-7-7-----|
Db|---5-5-x-x-5-5-x-x-2-2-x-x-2-2-x-x-4-4-x-x-4-4-x-x-7-7-x-x-7-7-----|x4
Ab|---5-5-x-x-5-5-x-x-2-2-x-x-2-2-x-x-2-2-x-x-2-2-x-x-5-5-x-x-5-5-----|
Eb|---3-3-x-x-3-3-x-x-0-0-x-x-0-0-------------------------------------|
Up Down Strumming


:::PRE-CHORUS2:::
eb|--------------------------------------------|
Bb|--------------------------------------------|
Gb|----------------------------------7-7-7-7---|
Db|-10-10-10-10-10-10-10-10--5-5-5-5-7-7-7-7---|x2
Ab|-10-10-10-10-10-10-10-10--5-5-5-5-5-5-5-5---|
Eb|-8--8--8--8--8--8--8--8---3-3-3-3-----------|

:::CHORUS2:::
eb|------------------------------------------------------------------------|
Bb|------------------------------------------------------------------------|
Gb|-------------------------------------4-4-4-4-4-4-4-4--7-7-7-7-7-7-7-7---|
Db|---5-5-5-5-5-5-5-5--2-2-2-2-2-2-2-2--4-4-4-4-4-4-4-4--7-7-7-7-7-7-7-7---|x2
Ab|---5-5-5-5-5-5-5-5--2-2-2-2-2-2-2-2--2-2-2-2-2-2-2-2--5-5-5-5-5-5-5-5---|
Eb|---3-3-3-3-3-3-3-3--0-0-0-0-0-0-0-0-------------------------------------|

:::OUTRO::: GUITAR 1
eb|----------------------------------------------------------------------
Bb|----------------------------------------------------------------------
Gb|---------------------------------------------------------|------------
Db|--------9-9-7-------9-9----------9-9------------10-10-9--|x4 ----
Ab|--10-10---------7-7-----10-----------10------------------| ---
Eb|-----------------------------7-7----------10-10----------| insync---

:::OUTRO::: GUITAR 2
eb|------------------------------------------------------------------------|
Bb|------------------------------------------------------------------------|
Gb|-------------------------------------4-4-4-4-4-4-4-4--7-7-7-7-7-7-7-7---|
Db|---5-5-5-5-5-5-5-5--2-2-2-2-2-2-2-2--4-4-4-4-4-4-4-4--7-7-7-7-7-7-7-7---|x4
Ab|---5-5-5-5-5-5-5-5--2-2-2-2-2-2-2-2--2-2-2-2-2-2-2-2--5-5-5-5-5-5-5-5---|
Eb|---3-3-3-3-3-3-3-3--0-0-0-0-0-0-0-0-------------------------------------|

:::Final Chord::: Either Guitar
eb|-----|
Bb|-----|
Gb|-----|
Db|--5--|
Ab|--5--|
Eb|--3--|
Pronto...

-----------------------------
|  , ,   |
|     http://akords.org     |
-----------------------------

 (: 0)
    :
  • Foxtrot Uniform Charlie Kilo
  • Foxtrot Uniform Charlie Kilo
  • Foxtrot Uniform Charlie Kilo
  • Foxtrot Uniform Charlie Kilo
  • Foxtrot Uniform Charlie Kilo
  •  
    , . '.

     
      

    BLIBL-