|  
 
:  
  : :  
      ?    

  |

akords.org » B » Bloodhound Gang » Foxtrot Uniform Charlie Kilo

Bloodhound Gang - Foxtrot Uniform Charlie Kilo 

song. F.U.C.K
album. hefty fine
eat shit

intro clean
|------------------------------------------------------------------|
|------------------------------------------------------------------|
|-------3-3---1--------3-3------------3-3----1-----------4-4---3---|
|--4-4-------------1-1-------4-------------------------------------| 2x
|---------------------------------1-1-------------4-4--------------|
|------------------------------------------------------------------|

Verse (clean)
|-----------------------------------------|
|-----------------------------------------|
|-----------33xx33xx----------------------| x4 Chorus or
|-----------11xx11xx--33xx33xx--66xx66xx--|
|-44xx44xx------------11xx11xx--44xx44xx--|
|-22xx22xx--------------------------------|

last time on verse
|---------------|
|---------------|
|---------------|
|--6X-X-X-X-X-X-|
|--4X-X-X-X-X-X-|
|---------------|


Pre-Chorus (distortion)
|--------------------------------------------------------------------|
|--------------------------------------------------------------------|
|-4444444444444444----------666666--44444444444444--888888--6666666--|
|-4444444444444444--444444--666666--44444444444444--888888--6666666--|
|-2222222222222222--444444--444444--22222222222222--666666--4444444--|
|-------------------222222-------------------------------------------|



gtr2
|-----------|------------|------------|------------|
|-----------|------------|------------|------------|
|-----------|--88888888--|--33333333--|--66666666--|
|-44444444--|--88888888--|--33333333--|--66666666--| x2
|-44444444--|--66666666--|--11111111--|--44444444--|
|-22222222--|------------|------------|------------|
foxtrot - Unifrom - Charlie - Kilo

(clean)
|------------------------------------------------------------------|
|------------------------------------------------------------------|
|-------3-3---1--------3-3------------3-3----1-----------4-4---3---|
|--4-4-------------1-1-------4-------------------------------------| 2x
|---------------------------------1-1-------------4-4--------------|
|------------------------------------------------------------------|

Verse (clean)
|-----------------------------------------|
|-----------------------------------------|
|-----------33xx33xx----------------------| x4
|-----------11xx11xx--33xx33xx--66xx66xx--|
|-44xx44xx------------11xx11xx--44xx44xx--|
|-22xx22xx--------------------------------|

last time on verse
|---------------|
|---------------|
|---------------|
|--6X-X-X-X-X-X-|
|--4X-X-X-X-X-X-|
|---------------|


Pre-Chorus (distortion)
|--------------------------------------------------------------------|
|--------------------------------------------------------------------|
|-4444444444444444----------666666--44444444444444--888888--6666666--|
|-4444444444444444--444444--666666--44444444444444--888888--6666666--|
|-2222222222222222--444444--444444--22222222222222--666666--4444444--|
|-------------------222222-------------------------------------------|



gtr 2
|-----------|------------|------------|------------|
|-----------|------------|------------|------------|
|-----------|--88888888--|--33333333--|--66666666--|
|-44444444--|--88888888--|--33333333--|--66666666--| x2
|-44444444--|--66666666--|--11111111--|--44444444--|
|-22222222--|------------|------------|------------|
foxtrot - Unifrom - Charlie - Kilo

Outro

gtr 1 (distrotion)
|------------------------------------------------------------------|
|------------------------------------------------------------------|
|-------3-3---1--------3-3------------3-3----1-----------4-4---3---|
|--4-4-------------1-1-------4-------------------------------------| 2x
|---------------------------------1-1-------------4-4--------------|
|------------------------------------------------------------------|

Outro gtr 2
|-----------|------------|------------|------------|
|-----------|------------|------------|------------|
|-----------|--88888888--|--33333333--|--66666666--|
|-44444444--|--88888888--|--33333333--|--66666666--| x2
|-44444444--|--66666666--|--11111111--|--44444444--|
|-22222222--|------------|------------|------------|
PUT THE YOU KNOW WHAT... IN THE YOU KNOW WERE

outro (both guitars)
|------|
|------|
|------| PRONTO.....
|-4~~--|
|-4~~--|
|-2~~--|

ADAM BURHAN!

-----------------------------
|  , ,   |
|     http://akords.org     |
-----------------------------

 (: 0)
    :
  • Aliens Exist
  • Foxtrot Uniform Charlie Kilo
  • I Hope You Die
  • Please Take Me Home
  • I Hope You Die
  •  
    , . '.

    ':*
    E-Mail:*
    :
    , : *
     
      

    BLIBL-