|  
 
:  
  : :  
      ?    

  |

akords.org » B » Bloodhound Gang » Fire Water Burn

Bloodhound Gang - Fire Water Burn 2

Tabbed by: Alex Simpson

This is my own work and please don't copy and use this again.

This is my first tab. I hope this is right I have checked the other tabs and they seem
to sound a little off. Send comments to:


Intro:

G# Fm
e|--4-4-4-4-4-4---1-1-1-1-1-1-----------------:|
B|--4-4-4-4-4-4---1-1-1-1-1-1-----------------:|
G|--5-5-5-5-5-5---2-2-2-2-2-2-----------------:|
D|--6-6-6-6-6-6---3-3-3-3-3-3-----------------:| x2
A|--6-6-6-6-6-6---3-3-3-3-3-3-----------------:|
E|--4-4-4-4-4-4---1-1-1-1-1-1-----------------:|

Listen to song for strum pattern. It's real easy.


G# Fm
e|--4-4-4-4-4-4---1-1-1-1-1-1-----------------:|
B|--4-4-4-4-4-4---1-1-1-1-1-1-----------------:|
G|--5-5-5-5-5-5---2-2-2-2-2-2-----------------:|
D|--6-6-6-6-6-6---3-3-3-3-3-3-----------------:| x3
A|--6-6-6-6-6-6---3-3-3-3-3-3-----------------:|
E|--4-4-4-4-4-4---1-1-1-1-1-1-----------------:|
"The roof, the roof, the roof is on fire"

After this it jumps higher and I think it is:
D# C#
e|--6-6-6-6-6-6---4-4-4-4-4-4-----------------:|
B|--7-7-7-7-7-7---5-5-5-5-5-5-----------------:|
G|--8-8-8-8-8-8---6-6-6-6-6-6-----------------:|
D|--8-8-8-8-8-8---6-6-6-6-6-6-----------------:| x1
A|--6-6-6-6-6-6---4-4-4-4-4-4-----------------:|
E|--------------------------------------------:|
"We don't need no water let the motherfucker burn."

PM..................................
e|--4.----------- -------------------------------------------------:|
B|--5.----------- -------------------------------------------------:|
G|--6.----------- -------------------------------------------------:|
D|--6.----------- -------------------------------------------------:| x1
A|--4.----------- ----6-6-6-6-6-6-10-10-3-3-3-3-3-3-3-3------------:|
E|--------------- ----4-4-4-4-4-4-8--8--1-1-1-1-1-1-1-1------------:|
"Burn motherfucker, burn"


PM..................................
e|------------------------------------------------:|
B|------------------------------------------------:|
G|------------------------------------------------:|
D|------------------------------------------------:| x3
A|--6-6-6-6-6-6-10-10-3-3-3-3-3-3-3-3-------------:|
E|--4-4-4-4-4-4-8--8--1-1-1-1-1-1-1-1-------------:|

Verse 1:

G# Fm
e|--4-4-4-4-4-4---1-1-1-1-1-1-----------------:|
B|--4-4-4-4-4-4---1-1-1-1-1-1-----------------:|
G|--5-5-5-5-5-5---2-2-2-2-2-2-----------------:|
D|--6-6-6-6-6-6---3-3-3-3-3-3-----------------:| x4
A|--6-6-6-6-6-6---3-3-3-3-3-3-----------------:|
E|--4-4-4-4-4-4---1-1-1-1-1-1-----------------:|

PM..................................
e|------------------------------------------------:|
B|------------------------------------------------:|
G|------------------------------------------------:|
D|------------------------------------------------:| x4
A|--6-6-6-6-6-6-10-10-3-3-3-3-3-3-3-3-------------:|
E|--4-4-4-4-4-4-8--8--1-1-1-1-1-1-1-1-------------:|


Chorus:

PM..................................
e|------------------------------------------------:|
B|------------------------------------------------:|
G|------------------------------------------------:|
D|------------------------------------------------:| x4
A|--6-6-6-6-6-6-10-10-3-3-3-3-3-3-3-3-------------:|
E|--4-4-4-4-4-4-8--8--1-1-1-1-1-1-1-1-------------:|
"The roof, the roof, the roof is on fire"

PM...............................
e|---------------------------------------:|
B|---------------------------------------:|
G|---------------------------------------:|
D|---------------------------------------:| x1
A|--8-8-8-8-8-8-8-8-6-6-6-6-6-6-6-6------:|
E|--6-6-6-6-6-6-6-6-4-4-4-4-4-4-4-4------:|
"We don't need no water let the motherfucker burn."

PM..................................
e|----------------------------------------------------------------:|
B|----------------------------------------------------------------:|
G|----------------------------------------------------------------:|
D|----------------------------------------------------------------:| x4
A|------------------6-6-6-6-6-6-10-10-3-3-3-3-3-3-3-3-------------:|
E|------------------4-4-4-4-4-4-8--8--1-1-1-1-1-1-1-1-------------:|
"Burn motherfucker, Burn"


Verse 2:

PM..................................
e|------------------------------------------------:|
B|------------------------------------------------:|
G|------------------------------------------------:|
D|------------------------------------------------:| x3
A|--6-6-6-6-6-6-10-10-3-3-3-3-3-3-3-3-------------:|
E|--4-4-4-4-4-4-8--8--1-1-1-1-1-1-1-1-------------:|


e|-------------------:|
B|-------------------:|
G|-------------------:|
D|-------------------:| x1
A|--6*---1*----------:|
E|--4*---3*----------:|


PM..................................
e|------------------------------------------------:|
B|------------------------------------------------:|
G|------------------------------------------------:|
D|------------------------------------------------:| x3
A|--6-6-6-6-6-6-10-10-3-3-3-3-3-3-3-3-------------:|
E|--4-4-4-4-4-4-8--8--1-1-1-1-1-1-1-1-------------:|


PM...............................
e|---------------------------------------:|
B|---------------------------------------:|
G|---------------------------------------:|
D|---------------------------------------:| x1
A|--8-8-8-8-8-8-8-8-6-6-6-6-6-6-6-6------:|
E|--6-6-6-6-6-6-6-6-4-4-4-4-4-4-4-4------:|

Chorus

The last part goes like this:

G# Fm
e|--4-4-4-4-4-4---1-1-1-1-1-1-----------------:|
B|--4-4-4-4-4-4---1-1-1-1-1-1-----------------:|
G|--5-5-5-5-5-5---2-2-2-2-2-2-----------------:|
D|--6-6-6-6-6-6---3-3-3-3-3-3-----------------:| x4
A|--6-6-6-6-6-6---3-3-3-3-3-3-----------------:|
E|--4-4-4-4-4-4---1-1-1-1-1-1-----------------:|

PM..................................
e|------------------------------------------------:|
B|------------------------------------------------:|
G|------------------------------------------------:|
D|------------------------------------------------:| x4
A|--6-6-6-6-6-6-10-10-3-3-3-3-3-3-3-3-------------:|
E|--4-4-4-4-4-4-8--8--1-1-1-1-1-1-1-1-------------:|


e|------------------------------------------------:|
B|------------------------------------------------:|
G|------------------------------------------------:|
D|------------------------------------------------:| x8
A|--6-6-6-6-6-6-10-10-3-3-3-3-3-3-3-3-------------:|
E|--4-4-4-4-4-4-8--8--1-1-1-1-1-1-1-1-------------:|

* = Let ring
PM... = Palm Mute

-----------------------------
|  , ,   |
|     http://akords.org     |
-----------------------------

 (: 0)
    :
  • The Roof Is On Fire
  • The Roof Is On Fire
  • Fire Water Burn
  • Fire Water Burn
  • The Roof Is On Fire
  •  
    , . '.

    ':*
    E-Mail:*
    :
    , : *
     
      

    BLIBL-