|  
 
:  
  : :  
      ?    

  |

akords.org » B » Bloodhound Gang » Farting With A Walkman On

Bloodhound Gang - Farting With A Walkman On 

-------------------------------------------------------------------------------
FARTING WITH A WALKMAN ON - Bloodhound Gang
-------------------------------------------------------------------------------
Tabbed by: ShanZE
Email: shanze.bfs@luukku.com

Verse (Clean) x2
I know you're gonna play me When you get wind
e|---------------------------------------------------------------------------|
B|---------------------------------------------------------------------------|
G|---------------------------------------------------------------------------|
D|--------------(4)-9--9-----9--9--9-----9--9--9-----9--9--9-----9--6--6-----|
A|--------------(4)-9--9-----9--9--9-----9--9--9-----9--9--9-----9--6--6-----|
E|--------------(2)-7--7-----7--7--7-----7--7--7-----7--7--7-----7--4--4-----|
I heard you're full of shit, so
e|-------------------------------------------------------------------------|
B|-------------------------------------------------------------------------|
G|-------------------------------------------------------------------------|
D|-6--6--6-----6--6--6-----6--6--6-----6--9--9-----9--9--9-----9--9--9-----|
A|-6--6--6-----6--6--6-----6--6--6-----6--9--9-----9--9--9-----9--9--9-----|
E|-4--4--4-----4--4--4-----4--4--4-----4--7--7-----7--7--7-----7--7--7-----|
I've been duped again But if you cover your ass
e|-------------------------------------------------------------------------|
B|-------------------------------------------------------------------------|
G|-------------------------------------------------------------------------|
D|-9--9--9-----9--6--6-----6--6--6-----6--6--6-----6--6--6-----6--4--4-----|
A|-9--9--9-----9--6--6-----6--6--6-----6--6--6-----6--6--6-----6--4--4-----|
E|-7--7--7-----7--4--4-----4--4--4-----4--4--4-----4--4--4-----4--2--2-----|
With the same old song
e|-------------------------------------------------------------------------|
B|-------------------------------------------------------------------------|
G|-------------------------------------------------------------------------|
D|-4--4--4-----4--4--4-----4--4--4-----4--6--6-----6--6--6-----6--6--6-----|
A|-4--4--4-----4--4--4-----4--4--4-----4--6--6-----6--6--6-----6--6--6-----|
E|-2--2--2-----2--2--2-----2--2--2-----2--4--4-----4--4--4-----4--4--4-----|
You might as well be farting, Farting with a walkman on
e|-------------------------------------------------------------------------|
B|-------------------------------------------------------------------------|
G|-------------------------------------------------------------------------|
D|-6--6--6-----6--4--4-----4--4--4-----4--2--2-----2--2--2-----2--9--9-----|
A|-6--6--6-----6--4--4-----4--4--4-----4--2--2-----2--2--2-----2--9--9-----|
E|-4--4--4-----4--2--2-----2--2--2-----2--0--0-----0--0--0-----0--7--7-----|
I know you're gonna...
e|---------------------------------------|
B|---------------------------------------|
G|---------------------------------------|
D|-9--9--9-----9--4--4-----4--4--4-----4-|
A|-9--9--9-----9--4--4-----4--4--4-----4-|
E|-7--7--7-----7--2--2-----2--2--2-----2-|
^this is the same as the one at start of this tab

Verse (Distortion) x2 (Lyrics only once)
...play me When you get wind
e|---------------------------------------------------------------------------|
B|---------------------------------------------------------------------------|
G|---------------------------------------------------------------------------|
D|-9--9--9--9--9--9--9--9--9--9--9--9--9--9--9--9--6--6--6--6--6--6--6--6--6-|
A|-9--9--9--9--9--9--9--9--9--9--9--9--9--9--9--9--6--6--6--6--6--6--6--6--6-|
E|-7--7--7--7--7--7--7--7--7--7--7--7--7--7--7--7--4--4--4--4--4--4--4--4--4-|
I heard you're full of shit so I've been duped again
e|---------------------------------------------------------------------------|
B|---------------------------------------------------------------------------|
G|---------------------------------------------------------------------------|
D|-6--6--6--6--6--6--6--9--9--9--9--9--9--9--9--9--9--9--9--9--9--9--9--6--6-|
A|-6--6--6--6--6--6--6--9--9--9--9--9--9--9--9--9--9--9--9--9--9--9--9--6--6-|
E|-4--4--4--4--4--4--4--7--7--7--7--7--7--7--7--7--7--7--7--7--7--7--7--4--4-|
But if you cover your ass
e|---------------------------------------------------------------------------|
B|---------------------------------------------------------------------------|
G|---------------------------------------------------------------------------|
D|-6--6--6--6--6--6--6--6--6--6--6--6--6--6--4--4--4--4--4--4--4--4--4--4--4-|
A|-6--6--6--6--6--6--6--6--6--6--6--6--6--6--4--4--4--4--4--4--4--4--4--4--4-|
E|-4--4--4--4--4--4--4--4--4--4--4--4--4--4--2--2--2--2--2--2--2--2--2--2--2-|
With the same old song You might as well be farting
e|---------------------------------------------------------------------------|
B|---------------------------------------------------------------------------|
G|---------------------------------------------------------------------------|
D|-4--4--4--4--4--6--6--6--6--6--6--6--6--6--6--6--6--6--6--6--6--4--4--4--4-|
A|-4--4--4--4--4--6--6--6--6--6--6--6--6--6--6--6--6--6--6--6--6--4--4--4--4-|
E|-2--2--2--2--2--4--4--4--4--4--4--4--4--4--4--4--4--4--4--4--4--2--2--2--2-|
Farting with a walkman on Give me a
e|---------------------------------------------------------------------------|
B|---------------------------------------------------------------------------|
G|---------------------------------------------------------------------------|
D|-4--4--4--4--2--2--2--2--2--2--2--2--9--9--9--9--9--9--9--9--4--4--4--4--4-|
A|-4--4--4--4--2--2--2--2--2--2--2--2--9--9--9--9--9--9--9--9--4--4--4--4--4-|
E|-2--2--2--2--0--0--0--0--0--0--0--0--7--7--7--7--7--7--7--7--2--2--2--2--2-|
fucking break
e|---------|
B|---------|
G|---------|
D|-4--4--4-|
A|-2--2--2-|
E|-2--2--2-|

Outro (Distortion) 3x
Farting with a walkman on
e|------------------------------------------------|
B|------------------------------------------------|
G|-4--4--4--4--4--4--4--4--4--4--4--4--4--4-------|
D|-4--4--4--4--4--4--4--4--4--4--4--4--4--4--4--4-|
A|-2--2--2--2--2--2--2--2--2--2--2--2--2--2--4--4-|
E|-------------------------------------------2--2-|

Outro (Distortion) 1x
Farting with a walkman on
e|------------------------------------------|
B|------------------------------------------|
G|-4--4--4--4--4--4--4--4--4--4--4--4--4--4-|
D|-4--4--4--4--4--4--4--4--4--4--4--4--4--4-|
A|-2--2--2--2--2--2--2--2--2--2--2--2--2--2-|
E|------------------------------------------|
===============================================================================

-----------------------------
|  , ,   |
|     http://akords.org     |
-----------------------------

 (: 0)
    :
  • Always
  • Uhn Tiss Uhn Tiss Uhn Tiss
  • Foxtrot Uniform Charlie Kilo
  • I Dont Give
  • Have A Drink
  •  
    , . '.

    ':*
    E-Mail:*
    :
    , : *
     
      

    BLIBL-