Зробити стартовою  |  Додати в вибране
 
Пошук по сайту:  
  логін: пароль:  
    Реєстрація на сайті   Нагадати пароль?    

Видавництво Симфонія | Книжкова фабрика

akords.org » B » Bloodhound Gang » Bad Touch
Знайти необхідні акорди

Bloodhound Gang - Bad Touch  табулатура

Standard Tuning
Easy to learn
Enjoy ;)

E||--3-----3--3-4--4-3--4--3--|--------3--3-4--4-3--4--3--|
B||-----1---------------------|--1------------------------|
G||---------------------------|-----3---------------------|
D||---------------------------|---------------------------|
A||---------------------------|---------------------------|
E||---------------------------|---------------------------|


--6-----3--3-4--4-3--4--3--|--------------------1---1--|
---------------------------|--4----4---4-----4----4----|
-----3---------------------|---------------------------|
---------------------------|---------------------------|
---------------------------|---------------------------|
---------------------------|---------------------------|


--3-----3--3-4--4-3--4--3--|--------3--3-4--4-3--4--3--|
-----1---------------------|--1------------------------|
---------------------------|-----3---------------------|
---------------------------|---------------------------|
---------------------------|---------------------------|
---------------------------|---------------------------|

   
--6-----3--3-4--4-3--4--3--|--------------------1---1--||
---------------------------|--4----4---4-----4----4----||
-----3---------------------|---------------------------||
---------------------------|---------------------------||
---------------------------|---------------------------||
---------------------------|---------------------------||

-----------------------------
|  акорди, навчання, відео  |
|     http://akords.org     |
-----------------------------

 (голосів: 0)
   Інші пісні:
  • Touch Too Much
  • Bad Touch
  • Always
  • Always
  • I Wanna Hold Your Hand 3
  •  
    Шановний відвідувач, Ви зайшли на сайт як незареєстрований користувач. Ми рекомендуємо Вам реєструватися або зайти на сайт під своїм ім'ям.

    Додавання коментаря

    Ім'я:*
    E-Mail:*
    Коментар:
    Введіть два слова, показані на зображенні: *
     
      

    BLIBL-створити сайт безкоштовно