|  
 
:  
  : :  
      ?    

  |

akords.org » B » Bloodhound Gang » Along Comes Mary

Bloodhound Gang - Along Comes Mary 7

Two times
G5 C5 D5 C5 Eb5 D5 C5 D5
e---------------------------------------------------------------------|
B---------------------------------------------------------------------|
G-------------5-5-7-7-7-7-7-7-5-5-8-8-8-8-8-8-7-7-5-5-5-5-5-5-7-7-----|
D-5-5-5-5-5-5-5-5-7-7-7-7-7-7-5-5-8-8-8-8-8-8-7-7-5-5-5-5-5-5-7-7-----|
A-5-5-5-5-5-5-3-3-5-5-5-5-5-5-3-3-6-6-6-6-6-6-5-5-3-3-3-3-3-3-5-5-----|
E-3-3-3-3-3-3---------------------------------------------------------|

Palm Muted an two times
G5 D5 Eb5 C5
e---------------------------------------------------------------------|
B---------------------------------------------------------------------|
G-----------------7-7-7-7-7-7-7-7-8-8-8-8-8-8-8-8-5-5-5-5-5-5-5-5-----|
D-5-5-5-5-5-5-5-5-7-7-7-7-7-7-7-7-8-8-8-8-8-8-8-8-5-5-5-5-5-5-5-5-----|
A-5-5-5-5-5-5-5-5-5-5-5-5-5-5-5-5-6-6-6-6-6-6-6-6-3-3-3-3-3-3-3-3-----|
E-3-3-3-3-3-3-3-3-----------------------------------------------------|

Palm Muted
G5 Bb5 G5 Bb5
e---------------------------------------------------------------------|
B---------------------------------------------------------------------|
G---------------------------------------------------------------------|
D-5-5-5-5-5-5-5-5-8-8-8-8-8-8-8-8-5-5-5-5-5-5-5-5-8-8-8-8-8-8-8-8-----|
A-5-5-5-5-5-5-5-5-8-8-8-8-8-8-8-8-5-5-5-5-5-5-5-5-8-8-8-8-8-8-8-8-----|
E-3-3-3-3-3-3-3-3-6-6-6-6-6-6-6-6-3-3-3-3-3-3-3-3-6-6-6-6-6-6-6-6-----|

Palm Muted but the last three of the last Bb5 not muted
G5 Bb5 G5 Bb5
e---------------------------------------------------------------------|
B---------------------------------------------------------------------|
G---------------------------------------------------------------------|
D-5-5-5-5-5-5-5-5-8-8-8-8-8-8-8-8-5-5-5-5-5-5-5-5-8-8-8-8-8-8-8-8-----|
A-5-5-5-5-5-5-5-5-8-8-8-8-8-8-8-8-6-6-6-6-6-6-5-5-8-8-8-8-8-8-8-8-----|
E-3-3-3-3-3-3-3-3-6-6-6-6-6-6-6-6-3-3-3-3-3-3-3-3-6-6-6-6-6-6-6-6-----|
open

The G5 and the Bb5 are Palm Muted but the last three of the last Bb5 not muted
G5 D5 Eb5 C5 G5 Bb5
e---------------------------------------------------------------------|
B---------------------------------------------------------------------|
G-----7-7-----8-8-5-5-------------------------------------------------|
D-5-5-7-7-----8-8-5-5-----5-5-5-5-5-5-5-5-8-8-8-8-8-8-8-8-------------|
A-5-5-5-5-----6-6-3-3-----5-5-5-5-5-5-5-5-8-8-8-8-8-8-8-8-------------|
E-3-3---------------------3-3-3-3-3-3-3-3-6-6-6-6-6-6-6-6-------------|
open

G5 D5 Eb5 C5 G5 Bb5 D5
e---------------------------------------------------------------------|
B---------------------------------------------------------------------|
G-----7-7-----8-8-5-5-----------------------------------7-------------|
D-5-5-7-7-----8-8-5-5-----5-5-5-5-5-5-5-5-8-8-8-8-8-8-8-7-------------|
A-5-5-5-5-----6-6-3-3-----5-5-5-5-5-5-5-5-8-8-8-8-8-8-8-5-------------|
E-3-3---------------------3-3-3-3-3-3-3-3-6-6-6-6-6-6-6---------------|

Eb5 D5 C5 D5 G5 F5 Bb5
e--------------------------------------------|
B--------------------------------------------|
G-8--------7-5--------7----------------------|
D-8--------7-5--------7-5--------3-8---------|
A-6--------5-3--------5-5--------3-8---------|
E-----------------------3--------1-6---------|

Two times
G5 C5 D5 C5 Eb5 D5 C5 D5
e---------------------------------------------------------------------|
B---------------------------------------------------------------------|
G-------------5-5-7-7-7-7-7-7-5-5-8-8-8-8-8-8-7-7-5-5-5-5-5-5-7-7-----|
D-5-5-5-5-5-5-5-5-7-7-7-7-7-7-5-5-8-8-8-8-8-8-7-7-5-5-5-5-5-5-7-7-----|
A-5-5-5-5-5-5-3-3-5-5-5-5-5-5-3-3-6-6-6-6-6-6-5-5-3-3-3-3-3-3-5-5-----|
E-3-3-3-3-3-3---------------------------------------------------------|

Two Times
Eb5 D5 C5 D5 G5 F5 Bb5 D5
e---------------------------------------------------------|
B---------------------------------------------------------|
G-8-8-------7-7-5-5-------7-7-------------------------7-7-|
D-8-8-------7-7-5-5-------7-7-5-5-------3-3-8-8-------7-7-|
A-6-6-------5-5-3-3-------5-5-5-5-------3-3-8-8-------5-5-|
E-----------------------------3-3-------1-1-6-6-----------|

Two Times and Palm Muted
Eb5 D5 C5 D5 G5 F5 Bb5 D5
e-----------------------------------------------------------------|
B-----------------------------------------------------------------|
G-8-8-8-8-8-8-7-7-5-5-5-5-5-5-7-7-----------------------------7-7-|
D-8-8-8-8-8-8-7-7-5-5-5-5-5-5-7-7-5-5-5-5-5-5-3-3-8-8-8-8-8-8-7-7-|
A-6-6-6-6-6-6-5-5-3-3-3-3-3-3-5-5-5-5-5-5-5-5-3-3-8-8-8-8-8-8-5-5-|
E---------------------------------3-3-3-3-3-3-1-1-6-6-6-6-6-6-----|

Two Times
Eb5 D5 C5 D5 G5 F5 Bb5 D5
e-----------------------------------------------------------------|
B-----------------------------------------------------------------|
G-8-8-8-8-8-8-7-7-5-5-5-5-5-5-7-7-----------------------------7-7-|
D-8-8-8-8-8-8-7-7-5-5-5-5-5-5-7-7-5-5-5-5-5-5-3-3-8-8-8-8-8-8-7-7-|
A-6-6-6-6-6-6-5-5-3-3-3-3-3-3-5-5-5-5-5-5-5-5-3-3-8-8-8-8-8-8-5-5-|
E---------------------------------3-3-3-3-3-3-1-1-6-6-6-6-6-6-----|

-----------------------------
|  , ,   |
|     http://akords.org     |
-----------------------------

 (: 0)
    :
  • Dont Tell Me That Its Over
  • Anthem Part Two
  • Anthem Part Two
  • Adams Apple
  • Along Comes Mary
  •  
    , . '.

    ':*
    E-Mail:*
    :
    , : *
     
      

    BLIBL-