|  
 
:  
  : :  
      ?    

  |

akords.org » B » Bloodhound Gang » Along Comes Mary

Bloodhound Gang - Along Comes Mary 2

Bloodhound Gang, Along comes Mary.
Tabbed by Jrg Nieveler, cooladresse@t-online.de.

Artist: Bloodhoung Gang

song: "Along comes Mary"

Transkription by : Jrg Nieveler





Thats a very simpel song, but pretty good.

There are three different parts, I have only two parts ,but

the two most important parts. When you need the third

send me an E -MAil: (cooladresse@t-online.de)

I hadnt enough time to finger it out, but its very simpel.

If i made a mistake please send me an E Mail!

The lyrics are not so important i think. Thanks!! Enjoy!



Part one : Chorus



Use a nice distortion :



G5 C5 D5 C5 Eb5 D5

e--------------------------------------------------------------------------------------

b--------------------------------------------------------------------------------------

g--------------------5--5--7--7--7--7--7--7--5--5--8--8--8--8--8--8--7--7---------------

d--5--5--5--5--5--5--5--5--7--7--7--7--7--7--5--5--8--8--8--8--8--8--7--7----------------

a--5--5--5--5--5--5--3--3--5--5--5--5--5--5--3--3--6--6--6--6--6--6--5--5----------------

E--3--3--3--3--3--3----------------------------------------------------------------------



C5 D5 G5

e------------------------------------------------------------------------------------------

b------------------------------------------------------------------------------------------

g--5--5--5--5--5--5--7--7-------------------------------------------------------------------

d--5--5--5--5--5--5--7--7--5----------------------------------------------------------------

a--3--3--3--3--3--3--5--5--5----------------------------------------------------------------

E--------------------------3---------------------------------------------------------------





Part two:



Part two is just G5 Eb5 D5 C5 again!!!

Pretty easy , listen to the song and finger it out !!!





Thank you !!

Have a nice day!!





:: Ultimate Guitar Archive ::
http://www.ultimate-guitar.com

-----------------------------
|  , ,   |
|     http://akords.org     |
-----------------------------

 (: 0)
    :
  • Along Comes Mary
  • Whats My Age Again
  • Adams Song
  • Three Point One Four
  • Three Point One Four
  •  
    , . '.

    ':*
    E-Mail:*
    :
    , : *
     
      

    BLIBL-