|  
 
:  
  : :  
      ?    

  |

akords.org » B » Blondie » The Hardest Part

Blondie - The Hardest Part 

-------------------------------------------------------------------------------
The Hardest Part - Blondie
-------------------------------------------------------------------------------
Tabbed by: Mick 2009

Guitar

Gm x4
E E E E E. S S S E E E E E E. S Q
E||---------------------------|-------------------------|
B||---------------------------|-------------------------|
G||------------------------0--|-----0------------3-L----|
D||-----5--3--2--3---2-L-3----|--------3--2--3---3-L----|
A||---------------------------|------------------5-L----|
E||---------------------------|-------------------------|

Bass
x4
E E E E E. S E E E E E E E. S Q
G||--------------------------|-------------------------|
D||-----5--3--2--3---2-L--0--|-----5--3--2--3----------|
A||--------------------------|-------------------------|
E||--3-----------------------|--3----------------------|

Guitar

F Gm F

E E E E E E S E. W E E E E E E S E.
--------------------------|-------------------|--------------------------|
--------------------1-----|-------------------|--------------------1-----|
--------2--------2----3---|--0----------------|--------2--------2----3---|
-----3--------3-----------|--0----------------|-----3--------3-----------|
--3--------3--------------|-------------------|--3--------3--------------|
--------------------------|--0----------------|--------------------------|

Bass

E E E E E E S E. Q Q Q Q E E E E E E S E.
--------------------------|-------------------|--------------------------|
--------------------------|-------------------|--------------------------|
--------------------------|-------------------|--------------------------|
--1--1--1--1--1--1--1-2---|--3----3----3----3-|--1--1--1--1--1--1--1-2---|

Guitar

Gm F

H H E E E E Q S E S
---------------------|--------------------------|
---------------------|--------------------------|
--0---------0--------|--------2----------3-0--3-|
--0---------0--------|-----3--------3---------5-|
---------------------|--3--------3--3---------5-|
---------------------|--------------5-----------|

Bass

Q Q Q Q E E E E Q Q
----------------------|-------------------------|
----------------------|-------------------------|
----------------------|-------------------------|
--3----3----3----3----|--1--1--1--1--1----------|


Gm F Gm
Twenty five tons of hardened steel rolls on no ordinary wheel
F Gm
Inside the armoured car ride two big armed guards
Gm Cm Gm
In a bullet-proof vest, shatterproof glass, overdrive, we're gonna pass
Cm Gm
Twenty five tons of hardened steel rolls on no ordinary wheel

Gm Cm
The hardest part of the armoured guard
Eb Gm
Big man of steel behind the steering wheel

Gm F Gm
Nitro and acetylene open la machine
F Gm
No short heist, no overnight, big money take you to Brazil
Gm Cm Gm
Bullet-proof vest, shatterproof glass, overdrive, we're gonna pass
Cm Gm
Time bomb, greasy mob, count down, hurry up, come on

Gm Cm
The hardest part of the armoured guard
Eb Gm
Big man of steel behind the steering wheel

Gm F Gm F

Gm F Gm
In a wire mesh cage with a twelve gauge. Radio - we're coming fast
F Gm
Ooh, I need to feel some hardened steel, deliver the big money deal

Gm Cm
Of the armoured guard here's what I heard
Eb Gm
I'll tell you that he will no matter what you feel


Gm Cm
The hardest part of the armoured guard
Eb Gm
Big man of steel behind the steering wheel

Gm F Gm
Twenty five tons of hardened steel deliver the big money deal

Guitar

Gm x3
E E E E E. S S S E E E E E E. S Q
E||---------------------------|-------------------------|
B||---------------------------|-------------------------|
G||------------------------0--|-----0------------3-L----|
D||-----5--3--2--3---2-L-3----|--------3--2--3---3-L----|
A||---------------------------|------------------5-L----|
E||---------------------------|-------------------------|

Bass
x3
E E E E E. S E E E E E E E. S Q
G||--------------------------|-------------------------|
D||-----5--3--2--3---2-L--0--|-----5--3--2--3----------|
A||--------------------------|-------------------------|
E||--3-----------------------|--3----------------------|



Mick 2009

-----------------------------
|  , ,   |
|     http://akords.org     |
-----------------------------

 (: 0)
    :
  • Orchid
  • Worlds Collide
  • Cacophony
  • Carousel
  • Wheels Of Confusion
  •  
    , . '.

    ':*
    E-Mail:*
    :
    , : *
     
      

    BLIBL-