|  
 
:  
  : :  
      ?    

  |

akords.org » B » Blondie » Love At The Pier

Blondie - Love At The Pier 

-----------------------------------------------------------------------
Love at the Pier - Blondie
-----------------------------------------------------------------------
Tabbed by:sundayman78
Email:blacktrain22@cox.net
One of my many favorite songs
from a great band.

Tuning:standard

Intro
e|--------------------------------------------------|
B|--------------------------------------------------|
G|--12--11--9--11--9--7--6--9--6---6-6--7-7--9-9----|
D|---------------------------------6-6--7-7--9-9----|
A|--10---9--7---9--7--5--4--7--4---4-4--5-5--7-7----|
E|--------------------------------------------------|

e|---------------------|
B|---------------------|
G|---------------------|
D|--9/89/89/16-------|
A|--7/67/67/14-------|
E|---------------------|
Verse
e|----------------------------------------|
B|----------------------------------------|
G|----------------------------------------|
D|----------------------------------------|
A|----------------------------------------|
E|--0-0-2-0-4-0-5-0--0--0-2-0-4-0-5-0-----|

e|----------------------------------------|
B|----------------------------------------|
G|----------------------------------------|
D|----------------------------------------|
A|--00-22-44-55--00-22-44-55--------------|
E|----------------------------------------|
keep on striking 0 until apropriate time
e|---------------------------------------|
B|--2------2-----2-----2-----------------|
G|--2------2-----2-----2-----------------|
D|--2------2-----2-----2-----------------|
A|--000....000...000...000...------------|
E|---------------------------------------|
Then strum up and down
e|--7-7-7...------------|
B|--7-7-7...------------|
G|--8-8-8...------------|
D|--9-9-9...------------|
A|--9-9-9...------------|
E|--7-7-7...------------|
After the second time playing the verse. let the 3rd note ring
and then srum up and down.
e|--5x--5x---7----7-7-7...----|
B|--5x--5x---7----7-7-7...----|
G|--6x--6x---8----8-8-8...----|
D|--7x--7x---9----9-9-9...----|
A|--7x--7x---9----9-9-9...----|
E|--5x--5x---7----7-7-7...----|
After playing the verse a 3rd time
e|------------------------------|
B|--2-----2-----2-----2---------|
G|--2-----2-----2-----2---------|
D|--2-----2-----2-----2---------|
A|--000...000...000...000...----|
E|------------------------------|
Solo (it's close enough) 2x
e|---------------------------------------------------|
B|---------------------------------------------------|
G|-----------------------------------------------9---|
D|--10p12-10p12-10p12----10p12---10p12-10p12---------|
A|--------------------12---------------------12------|
E|---------------------------------------------------|
Do the last two notes the second time 2x
e|------------------------------------------------------------|
B|------------------------------------------------------------|
G|------------------------------------------------------------|
D|--12p14-12p14-12p14----12p14---12p14-12p14--14--16--14/18~--|
A|--------------------14--------------------------------------|
E|------------------------------------------------------------|

e|--------------------------|
B|--2-----2-----2-----2-----|
G|--2-----2-----2-----2-----|
D|--2-----2-----2-----2-----|
A|--000...000...000...000---|
E|--------------------------|
Follow the Beat
e|----------------------------------------|
B|----------------------------------------|
G|--12-12--11-11--9--9--7--9-9--7-7-4-4---|
D|----------------------------------------|
A|--10-10--9--9---7--7--5--7-7--5-5-6-6---|
E|----------------------------------------|

e|------------------------------------|
B|------------------------------------|
G|--6-6--6-7--9-9--7-7--6-6--6-3-2----|
D|------------------------------------|
A|--4-4--4-5--7-7--5-5--4-4--4-5-4----|
E|------------------------------------|

Follow the Rythm
e|-----------------2-2-2-2-2...------|
B|--2-2-2-2-2...---3-3-3-3-3...------|
G|--2-2-2-2-2...---2-2-2-2-2...------|
D|--2-2-2-2-2...---0-0-0-0-0...------|
A|--0-0-0-0-0...---------------------|
E|-----------------------------------|
Then...
e|--2-2---------2-2---------2-2---------2-2---|
B|--3-3---------3-3---------3-3---------3-3---|
G|--2-2----4-2--2-2----4-2--2-2----4-2--2-2---|
D|--0-0--0------0-0--0------0-0--0------0-0---|
A|--------------------------------------------|
E|--------------------------------------------|
Outro 3x
e|-----------------------------------------------|
B|-----------------------------------------------|
G|--12--12--11--11--9--9--7--9--9--7--7--6--6----|
D|-----------------------------------------------|
A|--10--10---9---9--7--7--5--7--7--5--5--4--4----|
E|-----------------------------------------------|

e|--------------|
B|------2-------|
G|--4---2-------|
D|------2-------|
A|--2---0-------|
E|--------------|

END

| / slide up
| slide down
| h hammer-on
| p pull-off
| ~ vibrato
| + harmonic
| x Mute note
===============================================================================

-----------------------------
|  , ,   |
|     http://akords.org     |
-----------------------------

 (: 0)
    :
  • Children Of The Grave
  • Ill Follow The Sun
  • Pretty Baby
  • Love In An Elevator
  • Ill Follow The Sun 2
  •  
    , . '.

    ':*
    E-Mail:*
    :
    , : *
     
      

    BLIBL-