Зробити стартовою  |  Додати в вибране
 
Пошук по сайту:  
  логін: пароль:  
    Реєстрація на сайті   Нагадати пароль?    

Видавництво Симфонія | Книжкова фабрика

akords.org » B » Blondie » Heart Of Glass
Знайти необхідні акорди

Blondie - Heart Of Glass  табулатура

I can only figure out the solo (sorry)

e|----------------------------------------|
B|-------------------------------9--------|
G|---11--9--6---11--9--11--9h11----11--9--|
D|----------------------------------------|
A|----------------------------------------|
E|----------------------------------------|

e|----------------------------------------|
B|------------------------------9---------|
G|---11--9--5---11--9--11--9h11----11--9--|
D|----------------------------------------|
A|----------------------------------------|
E|----------------------------------------|

Like I said I am sorry I couldnt get the rest of the song.
Anyway if you have any questions email me at 26mann-s@hartontc.co.uk

Tabbed by Sean Mann

-----------------------------
|  акорди, навчання, відео  |
|     http://akords.org     |
-----------------------------

 (голосів: 0)
   Інші пісні:
  • Dont Let Me Down 3
  • Iron Man
  • Iron Man
  • Iron Man
  • Iron Man
  •  
    Шановний відвідувач, Ви зайшли на сайт як незареєстрований користувач. Ми рекомендуємо Вам реєструватися або зайти на сайт під своїм ім'ям.

    Додавання коментаря

    Ім'я:*
    E-Mail:*
    Коментар:
    Введіть два слова, показані на зображенні: *
     
      

    BLIBL-створити сайт безкоштовно