|  
 
:  
  : :  
      ?    

  |

akords.org » B » Blondie » Dreaming

Blondie - Dreaming 2

Dreamin’ - Blondie

Listen to song for timing but it’s basically the full chord (Guitar #1) on the opening
of each line then single notes for the other words in the verse while Guitar #2 plays notes

Intro riff: B-2/3—3/2--2—3/5--3—3/2--2--3--2—3/5--3-|

D G D G
e--2------------3---------------2---------------3--------------|
B--3------------3---------------3---------------3--------------|
G--2---4-2-0--------0--------0--2---4-2-0-----0--------------0-|
D--0---------4---------0-2-4----0---------4-4--------0--2--4---|
A---------------2-------------------------------2--------------|
E---------------3-------------------------------3--------------|
When… You…

G A B G
e--2---------------------------------------------------3-------------|
B--3------------0h2------------------------------------3-------------|
G--2---4-2-0----2------0-------------------0-------------------------|
D--0---------4--2----4---4--2--------4h------4--2-0-0------4—-2--0---|
A-----------------------------0--2---------------------2----------4--|
E------------------------------------------------------3-------------|
You asked… pleasure… measure… tea…

Chorus
e ----------------------------|
B --2---3------2---3----5--3--|
G --2---2------0---0----2--0--|
D --0-------------------------| 2x
Dreamin’ Dreamin’ is free

Bridge is just G D A

D G D G
When I met you in the restaurant, you could tell I was no debutante
D A B
You asked me what's my pleasure; a movie or a measure?
G Dsus
I'll have a cup of tea and tell you of my dreaming… dreaming is free

I don't want to live on charity. Pleasure's real or is it fantasy?
Reel to reel is living rarity; people stop and stare at me.
We just walk on by, we just keep on dreaming

G G
Feet feet, walking a two mile; Meet meet, meet me at the turnstile
D A
I never met him, I'll never forget him

Dream dream, even for a little while;
Dream dream, filling up an idle hour -- Fade away, radiate

D G D G
I sit by and watch the river flow. I sit by and watch the traffic go
D A B
Imagine something of your very own; Something you can have and hold
G Dsus
I'd build a road in gold just to have some dreaming; Dreaming is free

Dreaming -- Dreaming is free
Dreaming -- Dreaming is free

-----------------------------
|  , ,   |
|     http://akords.org     |
-----------------------------

 (: 0)
    :
  • Shut Up
  • All The Small Things
  • Dysentery Gary
  • In My Life 6
  • Feeling This
  •  
    , . '.

    ':*
    E-Mail:*
    :
    , : *
     
      

    BLIBL-