|  
 
:  
  : :  
      ?    

  |

akords.org » B » Blondie » Atomic

Blondie - Atomic 

ATOMIC

Written: Jimmy Destri, Debbie Harry
Album: Eat to the beat/Blondie


Russian intro:
1 3 5 7 1 3 5 7 1 3 5 7 1 3 5 7 1 3 5 7 1 3 5 7 1 3 5 7 1 3 5 7
e |--------------------------------|----------------3-2-O-----------|
B |--------------------------------|3-2-O---3-2-O---------3---------|
G |----------------4-2-O---4-2-O---|------------------------4-------|
D |5-4-2---5-4-2-------------------|--------------------------------|
A |--------------------------------|--------------------------------|
E |--------------------------------|--------------------------------|
Em G Bm Em B

Main guitar riff:
1 3 5 7 1 3 5 7 1 3 5 7 1 3 5 7 1 3 5 7 1 3 5 7 1 3 5 7 1 3 5 7
e |--------------------------------|--------------------------------|
B |--------------------------------|--------------------------------|
G |--------------------------------|--------------------------------|
D |-54-2------------54-2-----------|-54-2------------54-9-----------|
A |---------------2---------------2|---------------2--------7-------|
E |--------------------------------|--------------------------------|
Em C A D B


Intro:
Em C A D B x2

Em A D B
A-haa make me tonight. Tonight make it right.
Em fm D B
A-haa make me tonight. Tonight. Tonight!
Em fm D B
Oh, a-haa make it magnificent. Tonight. Right!


G D Em A D (stop)
Aaaah, your hair is beautiful. Aaaah, tonight.

Atomic!


Em C A D B x6 (Looong easy tremolo synt solo later with main guitar riff)


Bass solo (em)


Em C A D B x2 (Looong easy synth solo)


Em C A D B
Tonight make it magnificent. Tonight, make me tonii-iight!
Em C A D B
Your hair is beautiful. Oh-oo, tonii-iight!
Em C A D B
Ooh- darling, o-ooh, darling, ooh!
Em C A D B
Ooh- darling, o-ooh, darling, ooh!

-----------------------------
|  , ,   |
|     http://akords.org     |
-----------------------------

 (: 0)
    :
  • Dont Pass Me By 3
  • Angel 2
  • Yes It Is
  • Dont Pass Me By 2
  • Youre Going To Lose That Girl
  •  
    , . '.

    ':*
    E-Mail:*
    :
    , : *
     
      

    BLIBL-