|  
 
:  
  : :  
      ?    

  |

akords.org » B » Blink 182 » Adams Song

Blink 182 - Adams Song 13

blink 182,adam`s song.
Tabbed by diego benitez,diegob120@hotmail.com.

Author/Artist: blink 182
Title: adams song
Album: enema of the state
Transcribed by: diego bentez
Email: diegob120@hotmail.com

intro x2
----------------------------------------------------------|
----------------------------------------------------------|
----------------------------------------------------------|
---2------2-------2------2------2------2------2------2----|
-----3------3-------3------3------3------3------3------3--|
-5------5-------3------3------1------1------0------1------|

verse x4
---------------------------------------------------------------------|
---------------------------------------------------------------------|
-5-5-5-5-5-5-5-5-------------------2-2-2-2-2-2-2-2-------------------|
-5-5-5-5-5-5-5-5--3-3-3-3-3-3-3-3--2-2-2-2-2-2-2-2--3-3-3-3-3-3-3-3--|
-3-3-3-3-3-3-3-3--3-3-3-3-3-3-3-3--0-0-0-0-0-0-0-0--3-3-3-3-3-3-3-3--|
------------------1-1-1-1-1-1-1-1-------------------1-1-1-1-1-1-1-1--|
pm|...............................................................|

interlude x2
---------------------------------------------------------------------|
---------------------------------------------------------------------|
-----------------2------2--------------------------------------------|
---5-3----5-3------3------3------------------2------2----------------|
-3------3------5------5--------5-3----5-3------3------3--------------|
-----------------------------3------3------5------5------------------|

pre-chorus x2
---------------------------------------------------------------------|
---------------------------------------------------------------------|
-5-5-5-5-5-5-5-5--7-7-7-7-7-7-7-7--2-2-2-2-2-2-2-2-------------------|
-5-5-5-5-5-5-5-5--7-7-7-7-7-7-7-7--2-2-2-2-2-2-2-2--3-3-3-3-3-3-3-3--|
-3-3-3-3-3-3-3-3--5-5-5-5-5-5-5-5--0-0-0-0-0-0-0-0--3-3-3-3-3-3-3-3--|
----------------------------------------------------1-1-1-1-1-1-1-1--|
pm|...............................................................|

chorus x2
----------------------------------------------------------------------------|
----------------------------------------------------------------------------|
----------------------------------------------------------------------------|
-5-5-5-5-5-5-5-5--10-10-10-10-10-10-10-10--2-2-2-2-2-2-2-2--3-3-3-3-3-3-3-3-|
-5-5-5-5-5-5-5-5--10-10-10-10-10-10-10-10--2-2-2-2-2-2-2-2--3-3-3-3-3-3-3-3-|
-3-3-3-3-3-3-3-3--8--8--8--8--8--8--8--8---0-0-0-0-0-0-0-0--1-1-1-1-1-1-1-1-|

after the piano part
---------------------------------------------------------------------|
---------------------------------------------------------------------|
---------------------------------------------------------------------|
-----2------2------2------2------4------4------4------4--------------|
-2-2----2-2----2-2----2-2----4-4----4-4----4-4----4-4----------------|
---------------------------------------------------------------------|





-----------------------------
|  , ,   |
|     http://akords.org     |
-----------------------------

 (: 0)
    :
  • Adams Song
  • Adams Song
  • Adams Song Piano
  • Mutt
  • Adams Song
  •  
    , . '.

    ':*
    E-Mail:*
    :
    , : *
     
      

    BLIBL-