|  
 
:  
  : :  
      ?    

  |

akords.org » B » Blink 182 » Adams Song

Blink 182 - Adams Song 10

-=-=-=-=-=-=-=-=-=-=-=-=-=-=-=-=-=-=-=
Blink 182
Adam's Song
Enema Of The State
Tabbed By Leandro Koren
leandro_koren@yahoo.com.ar
-=-=-=-=-=-=-=-=-=-=-=-=-=-=-=-=-=-=-=

Tune down one step (DAFCGD)

Intro:

D||----------------------------------------------------||
A||----------------------------------------------------||
F||----------------------------------------------------||
C||----4-0----4-0-----4-0----4-0---4-0--4-0--4-0--4-0--||
G||--2------2-------0------0---------------------------||
D||-------------------------------3----3----0----3-----|| X 2

Verse I:
In the verse Tom muted the strings

C5 F5 A5 F5
pm......................................
D||------------------------------------------||
A||------------------------------------------||
F||--77777777------------44444444------------||
C||--77777777--55555555--44444444--55555555--||
G||--55555555--55555555--22222222--55555555--||
D||------------33333333------------33333333--||

Verse I:

C5 F5 A5
I never thought I'd die alone
F5
I laughed the loudest, who'd have known?
C5 F5 B5
I traced the cord back to the wall
G5
No wonder it was never plugged in at all

I took my time, I hurried up
The choice was mine, I didn't think enough
I'm too depressed to go on
You'll be sorry when I'm gone

Bridge:

D||---------------------------------------||
A||---------------------------------------||
F||----0---0/0---0------------------------||
C||---7---7/9---9----4-0--4-0---4-0--4-0--||
G||--5---5/7---7----2----2----------------||
D||----------------------------3----3-----||

Verse II:
Verse II without palm mute.
C5 D5 A5 F5
D||------------------------------------------||
A||------------------------------------------||
F||--77777777--99999999--44444444------------||
C||--77777777--99999999--44444444--55555555--||
G||--55555555--77777777--22222222--55555555--||
D||--------------------------------33333333--||

I never conquered, rarely came
16 just held such better days
Days when I still felt alive
We couldn't wait to get outside

This part the same as the other with distortion.

The world was wide, too late to try
The tour was over, we'd survived
I couldn't wait 'til I got home
To pass the time in my room alone

Intro X 2

Verse I:
Palm Mute

I never thought I'd die alone
Another six months, I'll be unknown
Give all my things to all my friends
You'll never step foot in my room again

You'll close it off, board it up
Remember the time that I spilled the cup
Of apple juice in the hall
Please tell mom this is not her fault

Bridge X 2

Verse II:
Without palm mute

I never conquered, rarely came
16 just held such better days
Days when I still felt alive
We couldn't wait to get outside

With distortion:

The world was wide, too late to try
The tour was over, we'd survived
I couldn't wait 'til I got home
To pass the time in my room alone

Piano Part:
C5
D||-------|
A||-------|
F||--777--|
C||--777--|
G||--555--|
D||-------|

Piano solo.

D||------------------------------------------------------------------||
A||-------------------8-8-8-7----------------------------8-8-8-7--10-||
F||-----7-9-7--7-9-7----------7----7-9--------7-9---7-9--------------||
C||-7-7--------------------------7-------5--7-----7------------------||
G||------------------------------------------------------------------||
D||------------------------------------------------------------------||

Verse II:

I never conquered, rarely came
Tomorrow holds such better days
Days when I can still feel alive
When I can't wait to get outside

The world is wide, the time goes by
The tour is over, I've survived
I can't wait 'til I get home
To pass the time in my room alone

End In C5.


-=-=-=-=-=-=-=-=-=-=-=-=-=-=-=-=-=-=-=
Blink 182
Adam's Song
Enema Of The State
Tabbed By Leandro Koren
leandro_koren@yahoo.com.ar
-=-=-=-=-=-=-=-=-=-=-=-=-=-=-=-=-=-=-=

This another version:

E||----------------------------------------------------------|
B||----------------------------------------------------------|
G||----------------------------------------------------------|
D||----2------2-------2-----2------2------2------2------2----|
A||--0---3--0---3------3-----3------3------3------3-------3--|
e||-----------------3-----3------1------1------0------1------|

Verse I:

C5 F5 A5 F5
pm......................................
E||------------------------------------------||
B||------------------------------------------||
G||--55555555------------22222222------------||
D||--55555555--33333333--22222222--33333333--||
A||--33333333--33333333--00000000--33333333--||
e||------------11111111------------11111111--||

Verse II & Chorus(With distortion)

C5 D5 A5 F5
E||------------------------------------------||
B||------------------------------------------||
G||--55555555--77777777--22222222------------||
D||--55555555--77777777--22222222--33333333--||
A||--33333333--55555555--00000000--33333333--||
e||--------------------------------11111111--||

Break:

E||-----------------------------------------------------||
B||-----------------------------------------------------||
G||---0----0------2------2------------------------------||
D||----3----3---0---3--0---3-----2------2------2----2---||
A||--3----3--------------------0---3--0---3-----3----3--||
e||-------------------------------------------1----1----||

Piano Solo:

E||---------------------------------------------------------------------------||
B||--------------------10-10-10-9------------------------------10-10-10-9--12-||
G||----9-11-9--9-11-9-------------9----9-11--------9-11---9-11----------------||
D||9-9-------------------------------9--------7--9------9---------------------||
A||---------------------------------------------------------------------------||
e||---------------------------------------------------------------------------||

Intro X 2
Verse I X 4
Break x 2
Verse II X 4
Intro X 2
Verse I X 4
Break X 2
Verse II X 4
Piano Solo X 1
Verse II X 4
End In C5.

-=-=-=-=-=-=-=-=-=-=-=-=-=-=-=-=-=-=-=-=-=-=-=-=-=-=-=-=-=-=-=-=-=-=-=-=-=-=
Any question mail me:
leandro_koren@yahoo.com.ar
-=-=-=-=-=-=-=-=-=-=-=-=-=-=-=-=-=-=-=-=-=-=-=-=-=-=-=-=-=-=-=-=-=-=-=-=-=-=

-----------------------------
|  , ,   |
|     http://akords.org     |
-----------------------------

 (: 0)
    :
  • Adams Song
  • Adams Song
  • Adams Song
  • Romeo And Rebecca
  • Adams Song Acoustic
  •  
    , . '.

    ':*
    E-Mail:*
    :
    , : *
     
      

    BLIBL-