|  
 
:  
  : :  
      ?    

  |

akords.org » B » Blink 182 » Adams Song

Blink 182 - Adams Song 5

ADAM'S SONG
As recorded by Blink 182

I tried My hardest at this so don't give me any bullshit


Gtr I (D G C F A D)
Gtr II (D G C F A D)
Gtr III (D G C F A D)
Gtr V (D G C F A D)
Gtr VI (D G C F A D)

S = Sixteenth Note
E = Eighth Note
Q = Quarter Note
H = Half Note
W = Whole Note
+ = Tie From Previous
. = Dotted Note
Uncapitalized letters represent notes that are staccato


Tablature Legend
----------------
h - hammer-on
p - pull-off
b - bend
pb - pre-bend
r - bend release (if no number after the r, then release immediately)
/ - slide into or out of (from/to "nowhere")
s - legato slide
S - shift slide
- natural harmonic
[n] - artificial harmonic
n(n) - tapped harmonic
~ - vibrato
tr - trill
T - tap
TP - trem. picking
PM - palm muting
n/ - tremolo bar dip; n = amount to dip
n - tremolo bar down
n/ - tremolo bar up
/n - tremolo bar inverted dip
= - hold bend; also acts as connecting device for hammers/pulls
<> - volume swell (louder/softer)
x - on rhythm slash represents muted slash
o - on rhythm slash represents single note slash

Misc Legend
-----------
| - bar
|| - double bar
||o - repeat start
o|| - repeat end
*| - double bar (ending)
: - bar (freetime)
$ - Segno
& - Coda
Tempo markers -


Q=136
$
4/4
Gtr I
E E Q E E Q E E Q E E Q E E Q E E Q E E Q E E Q
||----------------|---------------|---------------|----------------||
||o---------------|---------------|---------------|---------------o||
||----------------|---------------|---------------|----------------||
||----4-0----4-0--|---4-0----4-0--|---4-0----4-0--|---4-0----4-0---||
||o-2------2------|-0------0------|---------------|---------------o||
||----------------|---------------|-3------3------|-0------3-------||


Gtrs I, II
E E E E E E E E E E E E E E E E E E E E E E E E E E E E E E E E 4x
||------------------|-----------------|-----------------|-------------------||
||o-----------------|-----------------|-----------------|------------------o||
||------------------|-----------------|-----------------|-------------------||
||--4-4-4-4-4-4-4-4-|-----------------|-----------------|-------------------||
||o-5-5-5-5-5-5-5-5-|-5-5-5-5-5-5-5-5-|-9-9-9-9-9-9-9-9-|-5-5-5-5-5-5-5-5--o||
||------------------|-3-3-3-3-3-3-3-3-|-7-7-7-7-7-7-7-7-|-3-3-3-3-3-3-3-3---||


Gtr I
E E Q E E Q E E Q E E Q E E Q E E Q E E Q E E Q
|---------------|---------------|---------------|---------------|
|---------------|---------------|---------------|---------------|
|-----0------0--|-----0------0--|---------------|---------------|
|---7------7----|---9------9----|---4-0----4-0--|---4-0----4-0--|
|-5------5------|-7------7------|-2------2------|---------------|
|---------------|---------------|---------------|-3------3------|


Gtrs I, II
E E Q E E Q E E Q E E Q E E Q E E Q E E Q E E Q
|---------------|---------------|---------------|---------------|
|---------------|---------------|---------------|---------------|
|-----0------0--|-----0------0--|---------------|---------------|
|---7------7----|---9------9----|---4-0----4-0--|---2-0----2-0--|
|-5------5------|-7------7------|-2------2------|---------------|
|---------------|---------------|---------------|-3------3------|


Gtrs I, II
E E E E E E E E E E E E E E E E E E E E E E E E E E E E E E E E
|-----------------|------------------|-----------------|-----------------|
|-----------------|------------------|-----------------|-----------------|
|-7-7-7-7-7-7-7-7-|-9-9-9-9-9-9-9-9-|-4-4-4-4-4-4-4-4-|-----------------|
|-x-x-x-x-x-x-x-x-|-x-x-x-x-x-x-x-x--|-x-x-x-x-4-x-x-x-|-5-5-5-5-5-5-5-5-|
|-5-5-5-5-5-5-5-5-|-7-7-7-7-7-7-7-7-|-2-2-2-2-2-2-2-2-|-x-x-x-x-x-x-x-x-|
|-----------------|------------------|-----------------|-3-3-3-3-3-3-3-3-|


Gtr II
E E E E E E E E E E E E E E E E
|-------------------------|-------------------------|
|-------------------------|-------------------------|
|--7--7--7--7--7--7--7--7-|--9--9--9--9--9--9--9--9-|
|--x--x--x--x--x--x--x--x-|--x--x--x--x--x--x--x--x-|
|--5--5--5--5--5--5--5--5-|--7--7--7--7--7--7--7--7-|
|-------------------------|-------------------------|
|
| Gtr I
| E E E E E E E E E E E E E E E E
|-------------------------|-------------------------|
|-------------------------|-------------------------|
|-11-11-11-11-11-11-11-11-|-12-12-12-12-12-12-12-12-|
|--x--x--x--x--x--x--x--x-|--x--x--x--x--x--x--x--x-|
|--9--9--9--9--9--9--9--9-|-10-10-10-10-10-10-10-10-|
|-------------------------|-------------------------|


E E E E E E E E E E E E E E E E
|-------------------------|-------------------------|
|-------------------------|-------------------------|
|--4--4--4--4--4--4--4--4-|-------------------------|
|--x--x--x--x--4--x--x--x-|--5--5--5--5--5--5--5--0-|
|--2--2--2--2--2--2--2--2-|--x--x--x--5--x--x--x--0-|
|-------------------------|--3--3--3--3--3--3--3----|
|
| E E E E E E E E E E E E E E E E
|-------------------------|-------------------------|
|-------------------------|-------------------------|
|-11-11-11-11-11-11-11-11-|-12-12-12-12-12-12-12-12-|
|--x--x--x--x--x--x--x--x-|--x--x--x--x--x--x--x--x-|
|--9--9--9--9--9--9--9--9-|-10-10-10-10-10-10-10-10-|
|-------------------------|-------------------------|


Gtr III
E E E E E E E E E E E E E E E E
|-17-17-17-17-17-17-17-17-|-15-15-15-15-15-15-15-15--|
|--x--x--x--x--x--x--x--x-|--x--x--x--x--x--x--x--x--|
|-14-14-14-14-14-14-14-14-|-12-12-12-12-12-12-12-12--|
|-------------------------|--------------------------|
|-------------------------|--------------------------|
|-------------------------|--------------------------|
|
| Gtr II
| E E E E E E E E E E E E E E E E
|-------------------------|--------------------------|
|-------------------------|--------------------------|
|-11-11-11-11-11-11-11-11-|-12-12-12-12-12-12-12-12--|
|--x--x--x--x--x--x--x--x-|--x--x--x--x--x--x--x--x--|
|--9--9--9--9--9--9--9--9-|-10-10-10-10-10-10-10-10--|
|-------------------------|--------------------------|
|
| Gtr I
| E E E E E E E E E E E E E E E E
|-------------------------|--------------------------|
|-------------------------|--------------------------|
|--7--7--7--7--7--7--7--7-|--9--9--9--9--9--9--9--9-|
|--7--7--7--7--7--7--7--7-|--9--9--9--9--9--9--9--9-|
|--5--5--5--5--5--5--5--5-|--7--7--7--7--7--7--7--7-|
|--5--5--5--5--5--5--5--5-|--7--7--7--7--7--7--7--7-|


E E E E E E E E E E E E E E E E
|-14-14-14-14-14-14-14-14-|-15-15-15-15-15-15-15-15-|
|--x--x--x--x--x--x--x--x-|--x--x--x--x--x--x--x--x-|
|-11-11-11-11-11-11-11-11-|-12-12-12-12-12-12-12-12-|
|-------------------------|-------------------------|
|-------------------------|-------------------------|
|-------------------------|-------------------------|
|
| E E E E E E E E E E E E E E E E
|-------------------------|-------------------------|
|-------------------------|-------------------------|
|-11-11-11-11-11-11-11-11-|--7--7--7--7--7--7--7--7-|
|--x--x--x--x--x--x--x--x-|--x--x--x--x--x--x--x--x-|
|--9--9--9--9--9--9--9--9-|--5--5--5--5--5--5--5--5-|
|-------------------------|-------------------------|
|
| E E E E E E E E E E E E E E E E
|-------------------------|-------------------------|
|-------------------------|-------------------------|
|--4--4--4--4--4--4--4--4-|-------------------------|
|--4--4--4--4--4--4--4--4-|--5--5--5--5--5--5--5--5-|
|--2--2--2--2--2--2--2--2-|--5--5--5--5--5--5--5--5-|
|--2--2--2--2--2--2--2--2-|--3--3--3--3--3--3--3--3-|


Gtr III
E E E E E E E E E E E E E E E E
|-17-17-17-17-17-17-17-17-|-15-15-15-15-15-15-15-15--|
|--x--x--x--x--x--x--x--x-|--x--x--x--x--x--x--x--x--|
|-14-14-14-14-14-14-14-14-|-12-12-12-12-12-12-12-12--|
|-------------------------|--------------------------|
|-------------------------|--------------------------|
|-------------------------|--------------------------|
|
| Gtr II
| E E E E E E E E E E E E E E E E
|-------------------------|--------------------------|
|-------------------------|--------------------------|
|-11-11-11-11-11-11-11-11-|-12-12-12-12-12-12-12-12--|
|--x--x--x--x--x--x--x--x-|--x--x--x--x--x--x--x--x--|
|--9--9--9--9--9--9--9--9-|-10-10-10-10-10-10-10-10--|
|-------------------------|--------------------------|
|
| Gtr I
| E E E E E E E E E E E E E E E E
|-------------------------|--------------------------|
|-------------------------|--------------------------|
|--7--7--7--7--7--7--7--7-|--9--9--9--9--9--9--9--9-|
|--7--7--7--7--7--7--7--7-|--9--9--9--9--9--9--9--9-|
|--5--5--5--5--5--5--5--5-|--7--7--7--7--7--7--7--7-|
|--5--5--5--5--5--5--5--5-|--7--7--7--7--7--7--7--7-|


D.S.
$
E E E E E E E E E E E E E E E E
|-14-14-14-14-14-14-14-14-|-10-10-10-10-10-10-10-10-||
|--x--x--x--x--x--x--x--x-|--x--x--x--x--x--x--x--x-||
|-11-11-11-11-11-11-11-11-|--7--7--7--7--7--7--7--7-||
|-------------------------|-------------------------||
|-------------------------|-------------------------||
|-------------------------|-------------------------||
|
| E E E E E E E E E E E E E E E E
|-------------------------|-------------------------||
|-------------------------|-------------------------||
|-11-11-11-11-11-11-11-11-|--7--7--7--7--7--7--7--7-||
|--x--x--x--x--x--x--x--x-|--x--x--x--x--x--x--x--x-||
|--9--9--9--9--9--9--9--9-|--5--5--5--5--5--5--5--5-||
|-------------------------|-------------------------||
|
| E E E E E E E E E E E E E E E E
|-------------------------|-------------------------||
|-------------------------|-------------------------||
|--4--4--4--4--4--4--4--4-|-------------------------||
|--4--4--4--4--4--4--4--4-|--5--5--5--5--5--5--5--5-||
|--2--2--2--2--2--2--2--2-|--5--5--5--5--5--5--5--5-||
|--2--2--2--2--2--2--2--2-|--3--3--3--3--3--3--3--3-||


Gtr III
W W H +E Q. H Q Q
|-2---------------|-----------------|----------------------|--2----------------|
|-----------------|-3---------------|---------------3------|-----------3-------|
|-----------------|-----------------|--2--------(2)--------|---------------2---|
|-----------------|-----------------|----------------------|-------------------|
|-----------------|-----------------|----------------------|-------------------|
|-----------------|-----------------|----------------------|-------------------|
|
| Gtrs I, II
| W W +W +W
|-----------------|-----------------|----------------------|-------------------|
|-----------------|-----------------|----------------------|-------------------|
|-7---------------|-7---------------|-(7)------------------|-(7)---------------|
|-7---------------|-7---------------|-(7)------------------|-(7)---------------|
|-5---------------|-5---------------|-(5)------------------|-(5)---------------|
|-5---------------|-5---------------|-(5)------------------|-(5)---------------|
|
| Gtr V
| E E E E E E E E E E E E E E E E E E E E E E E E E E E E E E E E
|-----------------|-----------------|----------------------|-------------------|
|-----------------|-----------------|----------------------|-------------------|
|-----0-----0-----|-----0-----0-----|-------0-------0------|-------0-----0-----|
|---4-----4-----4-|---4-----4-----4-|-----4------4-------4-|-----4-----4-----4-|
|-5-----5-----5---|-5-----5-----5---|--5------5--------5---|--5------5-----5---|
|-----------------|-----------------|----------------------|-------------------|


W W H +E Q. H Q Q
|-2--------|----------|-----------------|--2-----------|
|----------|-3--------|------------3----|--------3-----|
|----------|----------|--2-----(2)------|-----------2--|
|----------|----------|-----------------|--------------|
|----------|----------|-----------------|--------------|
|----------|----------|-----------------|--------------|
|
| W W +W +W
|----------|----------|-----------------|--------------|
|----------|----------|-----------------|--------------|
|-7--------|-7--------|-(7)-------------|-(7)----------|
|-7--------|-7--------|-(7)-------------|-(7)----------|
|-5--------|-5--------|-(5)-------------|-(5)----------|
|-5--------|-5--------|-(5)-------------|-(5)----------|


Gtr VI
q E +E Q E +E Q. +Q Q
|-------------------12---|-(12)---------------------|
|--------------15--------|------15------(15)--------|
|------14-(14)-----------|---------------------14---|
|-12---------------------|--------------------------|
|------------------------|--------------------------|
|------------------------|--------------------------|
|
| Gtr V
| E E E E E E E E E E E E E E E E
|------------------------|--------------------------|
|------------------------|--------------------------|
|-------0---------0------|----------0--------0------|
|----4----------4------4-|-------4--------4-------4-|
|--5--------5--------5---|---5--------5---------5---|
|------------------------|--------------------------|


+Q E E +E Q. E E E E +E E E E
|-----------12-(12)---------|-15-15-15-14-(14)----------|
|--------15---------15------|------------------15----15-|
|-(14)----------------------|---------------------14----|
|---------------------------|---------------------------|
|---------------------------|---------------------------|
|---------------------------|---------------------------|
|
| E E E E E E E E E E E E E E E E
|---------------------------|---------------------------|
|---------------------------|---------------------------|
|---------0----------0------|--------0----------0-------|
|------4---------4--------4-|-----4---------4---------4-|
|---5--------5----------5---|--5--------5----------5----|
|---------------------------|---------------------------|


Gtr VI
H +E E E E +E Q E +E E E E
|------------------12-|-(12)----------------------|
|-15----(15)----15----|------15-------------------|
|------------14-------|----------12-(12)-12-12-12-|
|---------------------|---------------------------|
|---------------------|---------------------------|
|---------------------|---------------------------|


E E E E +E E Q E E E E Q. Q
|-------12----------------|-14-------15-15----17---|
|----15------------15-----|----15------------------|
|-14-------14-(14)----14--|-------14---------------|
|-------------------------|------------------------|
|-------------------------|------------------------|
|-------------------------|------------------------|


Gtrs I, II
E E E E E E E E E E E E E E E E E E E E E E E E E E E E E E E E
|-----------------|-----------------|-----------------|-----------------|
|-----------------|-----------------|-----------------|-----------------|
|-----7-----7-----|-7-----7-----7---|-----7-----7-----|-7-----7-----7---|
|---0-----0-----0-|-----0-----0---0-|---0-----0-----0-|-----0-----0---0-|
|-5-----5-----5---|---5-----5-------|-5-----5-----5---|---5-----5-------|
|-----------------|-----------------|-----------------|-----------------|


Gtr I
E E E E E E E E E E E E E E E E
||--------------------------|-------------------------|
||o-------------------------|-------------------------|
||---7--7--7--7--7--7--7--7-|--9--9--9--9--9--9--9--9-|
||---7--7--7--7--7--7--7--7-|--9--9--9--9--9--9--9--9-|
||o--5--5--5--5--5--5--5--5-|--7--7--7--7--7--7--7--7-|
||---5--5--5--5--5--5--5--5-|--7--7--7--7--7--7--7--7-|
|
| Gtr II
| E E E E E E E E E E E E E E E E
||--------------------------|-------------------------|
||o-------------------------|-------------------------|
||--11-11-11-11-11-11-11-11-|-12-12-12-12-12-12-12-12-|
||---x--x--x--x--x--x--x--x-|--x--x--x--x--x--x--x--x-|
||o--9--9--9--9--9--9--9--9-|-10-10-10-10-10-10-10-10-|
||--------------------------|-------------------------|
|
| Gtr III
| E E E E E E E E E E E E E E E E
||--17-17-17-17-17-17-17-17-|-15-15-15-15-15-15-15-15-|
||o--x--x--x--x--x--x--x--x-|--x--x--x--x--x--x--x--x-|
||--14-14-14-14-14-14-14-14-|-12-12-12-12-12-12-12-12-|
||--------------------------|-------------------------|
||o-------------------------|-------------------------|
||--------------------------|-------------------------|


E E E E E E E E E E E E E E E E 3x
|-------------------------|---------------------------||
|-------------------------|--------------------------o||
|--4--4--4--4--4--4--4--4-|---------------------------||
|--4--4--4--4--4--4--4--4-|--5--5--5--5--5--5--5--5---||
|--2--2--2--2--2--2--2--2-|--5--5--5--5--5--5--5--5--o||
|--2--2--2--2--2--2--2--2-|--3--3--3--3--3--3--3--3---||
|
| E E E E E E E E E E E E E E E E 3x
|-------------------------|---------------------------||
|-------------------------|--------------------------o||
|-11-11-11-11-11-11-11-11-|--7--7--7--7--7--7--7--7---||
|--x--x--x--x--x--x--x--x-|--x--x--x--x--x--x--x--x---||
|--9--9--9--9--9--9--9--9-|--5--5--5--5--5--5--5--5--o||
|-------------------------|---------------------------||
|
| E E E E E E E E E E E E E E E E 3x
|-14-14-14-14-14-14-14-14-|-15-15-15-15-15-15-15-15---||
|--x--x--x--x--x--x--x--x-|--x--x--x--x--x--x--x--x--o||
|-11-11-11-11-11-11-11-11-|-12-12-12-12-12-12-12-12---||
|-------------------------|---------------------------||
|-------------------------|--------------------------o||
|-------------------------|---------------------------||


E E E E E E E E E E E E E E E E
|-------------------------|-------------------------|
|-------------------------|-------------------------|
|--7--7--7--7--7--7--7--7-|--9--9--9--9--9--9--9--9-|
|--7--7--7--7--7--7--7--7-|--9--9--9--9--9--9--9--9-|
|--5--5--5--5--5--5--5--5-|--7--7--7--7--7--7--7--7-|
|--5--5--5--5--5--5--5--5-|--7--7--7--7--7--7--7--7-|
|
| E E E E E E E E E E E E E E E E
|-------------------------|-------------------------|
|-------------------------|-------------------------|
|-11-11-11-11-11-11-11-11-|-12-12-12-12-12-12-12-12-|
|--x--x--x--x--x--x--x--x-|--x--x--x--x--x--x--x--x-|
|--9--9--9--9--9--9--9--9-|-10-10-10-10-10-10-10-10-|
|-------------------------|-------------------------|
|
| E E E E E E E E E E E E E E E E
|-17-17-17-17-17-17-17-17-|-15-15-15-15-15-15-15-15-|
|--x--x--x--x--x--x--x--x-|--x--x--x--x--x--x--x--x-|
|-14-14-14-14-14-14-14-14-|-12-12-12-12-12-12-12-12-|
|-------------------------|-------------------------|
|-------------------------|-------------------------|
|-------------------------|-------------------------|


E E E E E E E E E E E E E E E E W W
|-------------------------|-------------------------|-17----*|
|-------------------------|-------------------------|-17----*|
|--4--4--4--4--4--4--4--4-|-------------------------|-14-7--*|
|--4--4--4--4--4--4--4--4-|--5--5--5--5--5--5--5--5-|----7--*|
|--2--2--2--2--2--2--2--2-|--5--5--5--5--5--5--5--5-|----5--*|
|--2--2--2--2--2--2--2--2-|--3--3--3--3--3--3--3--3-|----5--*|
|
| E E E E E E E E E E E E E E E E W W
|-------------------------|-------------------------|-------*|
|-------------------------|-------------------------|-------*|
|-11-11-11-11-11-11-11-11-|--7--7--7--7--7--7--7--7-|-------*|
|--x--x--x--x--x--x--x--x-|--x--x--x--x--x--x--x--x-|-------*|
|--9--9--9--9--9--9--9--9-|--5--5--5--5--5--5--5--5-|-------*|
|-------------------------|-------------------------|-------*|
|
| E E E E E E E E E E E E E E E E W W
|-14-14-14-14-14-14-14-14-|-10-10-10-10-10-10-10-10-|-------*|
|--x--x--x--x--x--x--x--x-|--x--x--x--x--x--x--x--x-|-------*|
|-11-11-11-11-11-11-11-11-|--7--7--7--7--7--7--7--7-|-------*|
|-------------------------|-------------------------|-------*|
|-------------------------|-------------------------|-------*|
|-------------------------|-------------------------|-------*|

-----------------------------
|  , ,   |
|     http://akords.org     |
-----------------------------

 (: 0)
    :
  • Everybody Bass 2
  • Larger Than Life 5
  • Get Down
  • Let It Be 5
  • Under A Violet Moon
  •  
    , . '.

    ':*
    E-Mail:*
    :
    , : *
     
      

    BLIBL-