|  
 
:  
  : :  
      ?    

  |

akords.org » B » Blink 182 » Adams Song

Blink 182 - Adams Song 3

What is the internet comin' to. This is my FAVOURITE Blink-182 song and there isn't a correct version of it on the whole site!! Well I am absolutely sure that this tab is 100% correct. So Enjoy...

Riff1 Intro
e-----------------------------------------------------------
B-----------------------------------------------------------
G-----------------------------------------------------------
D----4-0----4-0----4-0----4-0----4-0----4-0----4-0----4-0---
A--2------2------0------0-----------------------------------
E------------------------------3------3------0------3-------

[Intro]
Riff1 (guitar)
Riff1 (guitar+drum)

[Verse] (clean palm mute)
D* G5 B5 G5 D*
I never thought_ I'd die alone_ I laughed the lou_dest who'd have known_?
G5 B5 G5 D*
I trace the cord_ back to the wall_ No wonder it was never plugged in at all_
G5 B5 G5 D*
I took my time_, I hur_ried up_ The choice was mine_ I didn't think enough_
G5 B5 G5 Riff2a (guitar)
I'm too depressed_, to go on_ You'll be sor_ry_ when I'm gone_

Riff2a (guitar+drum+bass)

Riff2a Interlude
e----------------------------------------------------------
B----------------------------------------------------------
G------0------0------0------0------------------------------
D----7------7------9------9------4-0----4-0----4-0----4-0--
A--5------5------7------7------2------2--------------------
E--------------------------------------------3------3------

[Chorus1] (little dist.)
D5 Em Bm G D5
I ne__ver con_quered, rarely came - six_teen_ just held_ such better days
D5 Em Bm G D5 (dist.)
Days when I__ still felt alive__ We couldn't wait__ to get outside_
E5 B5 G5 D5
The world_ was wide_, too late_ to try_ The tour was o_ver, we'd survived
E5 B5 G5 Riff1 Riff1
I couldn't wait_ till I_ got_ home_ To pass the time_ in my room alone_

D* G5 B5 G5 D*
I ne_ver_ thought_ I'd die a_lone_ Another six_ months_ I'll be unknown_
G5 B5 G5 D*
Give all_ my things_ to all my friends_ You'll never set foot_ in my room again
G5 B5 G5 D*
You'll close it off_, board_ it up_ Remember the time_ that I spilled the cup_
G5 B5 G5 Riff2b (guitar)
Of apple_ juice_ in_ the hall_ Please_ tell mom_ this is not her fault

Riff2b guitar+drum+bass)

Riff2b Interlude
e----------------------------------------------------------
B----------------------------------------------------------
G------0------0------0------0------------------------------
D----7------7------9------9------4-0----4-0----2-0----2-0--
A--5------5------7------7------2------2--------------------
E--------------------------------------------3------3------

[Repeat Chorus1] (no Riff2 at the end)

[Bridge] (clean) Bassline:
D5 G5 A5 G5 D5 G5 A5 B5 G5
D5 G5 A5 G5 D5 G5 A5 B5 G5

D5 G5 D5 G5 D5 G5 A5 B5 G5

Riff3 Bridge beginning
e-----------------------------------
B-----------------------------------
G-----0-----0-------------0-----0---
D---4-----4------------4------4-----
A-5-----5------------5------5-----5-
E-----------------------------------

Riff4 Bridge end
e--------------------------------
B-----3-----3-----3-----3-----3--
G---2-----2-----2-----2-----2----
D-0-----0-----0-----0-----0------
A--------------------------------
E--------------------------------

[Chorus2] (heavy dist.)
D5 E5 B5 G5 D5
I ne__ver con_quered, rarely came - To_morrow_ holds_ such better days
D5 E5 B5 G5 D5
Days when I__ still feel alive__ When I can't wait__ to get outside_
E5 B5 G5 D5
The world_ was wide_, as time_ goes by_ The tour is o_ver, I_'ve survived
E5 B5 G5 D5
I can't wait_ till I_ got_ home_ To pass the time_ in my room alone_

Chorus

Guitar1
D5 E5 B5 G5
e|-----------------------------------------------------------------|
B|-----------------------------------------------------------------|
G|-7-7-7-7-7-7-7-7-9-9-9-9-9-9-9-9-4-4-4-4-4-4-4-4-----------------|
D|-7-7-7-7-7-7-7-7-9-9-9-9-9-9-9-9-4-4-4-4-4-4-4-4-5-5-5-5-5-5-5-5-|
A|-5-5-5-5-5-5-5-5-7-7-7-7-7-7-7-7-2-2-2-2-2-2-2-2-5-5-5-5-5-5-5-5-|
E|-------------------------------------------------3-3-3-3-3-3-3-3-|

Guitar2 Enters "outside the world was wide.."
E|-----------------------------------------------------------------|
B|-7-7-7-7-7-7-7-7-8-8-8-8-8-8-8-8-7-7-7-7-7-7-7-7-8-8-8-8-8-8-8-8-|
G|-x-x-x-x-x-x-x-x-x-x-x-x-x-x-x-x-x-x-x-x-x-x-x-x-x-x-x-x-x-x-x-x-|
D|-4-4-4-4-4-4-4-4-5-5-5-5-5-5-5-5-4-4-4-4-4-4-4-4-5-5-5-5-5-5-5-5-|
A|-----------------------------------------------------------------|
E|-----------------------------------------------------------------|

Guitar2 Enters at "I couldn't wait till I got home.."
E|-----------------------------------------------------------------|
B|-7-7-7-7-7-7-7-7-8-8-8-8-8-8-8-8-7-7-7-7-7-7-7-7-----------------|
G|-x-x-x-x-x-x-x-x-x-x-x-x-x-x-x-x-x-x-x-x-x-x-x-x-7-7-7-7-7-7-7-7-|
D|-4-4-4-4-4-4-4-4-5-5-5-5-5-5-5-5-4-4-4-4-4-4-4-4-x-x-x-x-x-x-x-x-|
A|-------------------------------------------------5-5-5-5-5-5-5-5-|
E|-----------------------------------------------------------------|

Bridge

Piano part in the middle of bridge
e-----------------------3-3-3-2----------------------
B--3---5-3------3--5-3-----------3--3------3-5-3-----
G----------------------------------------2--------0--
D----------------------------------------------------
A----------------------------------------------------
E----------------------------------------------------

e----------------2-----3---5--|
B----3-5----3------3----------|
G--2-----2-----------2--------|
D-----------------------------|
A-----------------------------|
E-----------------------------|

Chords:
Tuning: 1 step down
(DGCFAD)

D* x54xxx
G5 355xxx
B5 x244xx
D5 x577xx
Em 022000
Bm x24432
G 320033
E5 x799xx / 022xxx
A5 x022xx

-----------------------------
|  , ,   |
|     http://akords.org     |
-----------------------------

 (: 0)
    :
  • Adams Song
  • Adams Song
  • Adams Song
  • Adams Song
  • Adams Song Acoustic
  •  
    , . '.

    ':*
    E-Mail:*
    :
    , : *
     
      

    BLIBL-