Зробити стартовою  |  Додати в вибране
 
Пошук по сайту:  
  логін: пароль:  
    Реєстрація на сайті   Нагадати пароль?    

Видавництво Симфонія | Книжкова фабрика

akords.org » B » Blink 182 » Action Live
Знайти необхідні акорди

Blink 182 - Action Live  табулатура

Band: Blink 182
Song: Action (Feeling This (live))
Tabbed by: Daniel Luengas
E-mail: daniel182col@hotmail.com

This song is one of the best song blink 182 has and this is the real
live version...tom played it on TRL... I know the song it's called
feeling this but I couldn't post it so that's why  I posted it as action...enjoy...

Intro:
e|-------------------|
B|-------------------|
G|-11/9-0-9-13-9---|
D|-11/9-0-9-13-9---|
A|--9/7-0-7-11-7---|  X2
E|-------------------|

Verse:
e|-----------------|
B|-----------------|
G|-11/9-0-9-13-0--|
D|-11/9-0-9-13-0--|
A|--9/7-0-7-11-0--|  X8
E|-----------------|

Chorus:
e|----------|
B|----------|
G|----------|
D|-7--------|
A|-7--------|  X1
E|-0--------|

Pre-Verse:
e|---------------------------------|
B|---------------------------------|
G|-9-9-9-11-11-11-13-13-13-14-14-14|
D|-9-9-9-11-11-11-13-13-13-14-14-14|
A|-7-7-7--9--9--9-11-11-11-12-12-12|  X1
E|---------------------------------|

Intro:
e|-----------------|
B|-----------------|
G|-11/9-0-9-13-0--|
D|-11/9-0-9-13-0--|
A|--9/7-0-7-11-0--|  X2
E|-----------------|

Verse:
e|-----------------|
B|-----------------|
G|-11/9-0-9-13-0--|
D|-11/9-0-9-13-0--|
A|--9/7-0-7-11-0--|  X6
E|-----------------|

Chorus:
e|----------|
B|----------|
G|----------|
D|-7--------|
A|-7--------|  X1
E|-0--------|

Bridge:
e|-----------------------------|
B|-----------------------------|
G|-----------------------------|
D|--9-9-9-9-9-9-9-9-9-9-9-9-9--|
A|--9-9-9-9-9-9-9-9-9-9-9-9-9--|  
E|--7-7-7-7-7-7-7-7-7-7-7-7-7--|
 Pm............................

Outro
e|-----------------------------|
B|-----------------------------|
G|-9-9-9-----------------------|
D|-9-9-9-9-9-9-11-11-11-7-7-7--|
A|-7-7-7-9-9-9-11-11-11-7-7-7--|   X8
E|-------7-7-7--9--9--9-5-5-5--|


Ok... it's pretty easy,
any comments e-mail me at:   daniel182col@hotmail.com

-----------------------------
|  акорди, навчання, відео  |
|     http://akords.org     |
-----------------------------

 (голосів: 0)
   Інші пісні:
  • Dammit Live
  • Action
  • Feeling This Live
  • Action
  • Feeling This Live
  •  
    Шановний відвідувач, Ви зайшли на сайт як незареєстрований користувач. Ми рекомендуємо Вам реєструватися або зайти на сайт під своїм ім'ям.

    Додавання коментаря

    Ім'я:*
    E-Mail:*
    Коментар:
    Введіть два слова, показані на зображенні: *
     
      

    BLIBL-створити сайт безкоштовно