Зробити стартовою  |  Додати в вибране
 
Пошук по сайту:  
  логін: пароль:  
    Реєстрація на сайті   Нагадати пароль?    

Видавництво Симфонія | Книжкова фабрика

akords.org » B » Blink 182 » Action
Знайти необхідні акорди

Blink 182 - Action 7 табулатура

Intro:
E|------------------|
B|------------------|
D|-9999-9999/13-----|
G|-xxxx-xxxx-x------|
A|-7777-7777/11-----|
E|------------------|


E|--------------------------------|
B|--------------------------------|
D|--------------------------------|
G|----9-----6-----9-------6-------|
A|-7-----9-----7-----9-9-----9--7-|
E|--------------------------------|


Buildup to verse:
E|------------------|
B|------------------|
D|-9-11-13-14-------|
G|-x-x--x--x--------|
A|-7-9--11-12-------|
E|------------------|

Verse:
E|------------------|
B|------------------|
D|-9999-9999/13-----|
G|-xxxx-xxxx-x------|
A|-7777-7777/11-----|
E|------------------|

Buildup to chorus:
E|------------------|
B|------------------|
D|---4-6-2----------|
G|-2-4-6-2----------|
A|-2-2-4-0----------|
E|-0----------------|
PM .

-----------------------------
|  акорди, навчання, відео  |
|     http://akords.org     |
-----------------------------

 (голосів: 0)
   Інші пісні:
  • Dont Leave Me
  • Dont Leave Me
  • 21 Days
  • Fentoozler
  • My Pet Sally
  •  
    Шановний відвідувач, Ви зайшли на сайт як незареєстрований користувач. Ми рекомендуємо Вам реєструватися або зайти на сайт під своїм ім'ям.

    Додавання коментаря

    Ім'я:*
    E-Mail:*
    Коментар:
    Введіть два слова, показані на зображенні: *
     
      

    BLIBL-створити сайт безкоштовно