|  
 
:  
  : :  
      ?    

  |

akords.org » B » Blink 182 » Action

Blink 182 - Action 5

Estimados amigos(as) guitarrstas:
Le garantizo el 100% de los sonido y la cantidad de los traste en sta cancin.
Favor de aplicar todas las tcnicas que se hace notar debajo de los trastes si
sta la posee, para as no eliminar los elementos que con lleva ste tablero.
Cualquier correccin o error, favor de hacrmelo saber a travs de sta direccin
de correo electrnico, vic_man_01@hotmail.com.

LEYENDA:

(/) = Slide Acendente
(()) = Mono Traste
(PM) = Palmado Mutado Derecho
(X#) = Nmero de Veces que se juega en los Trastes o Acordes sealados.

ORDEN:

( Por favor, siga la secuencia del tablero; estn ordenados como es la cancin ).

MODO:

Las posiciones de las cuerdas en la guitarra de modo Estndar; (e)(B)(G)(D)(A)(E).

Intro A And Verse A:
e------------------------------------------------------------
B------------------------------------------------------------
G--9999-99(10)/(13)------------------------------------------
D--xxxx-xx-x-------------------------------------------------
A--7777-77-8--/(11)------------------------------------------
E---------------------------------------------------------X10

Brigde A:
e------------------------------------------------------------------------------
B------------------------------------------------------------------------------
G--9999999999/(11)(11)(11)(11)(11)(11)(11)(11)(11)(11)/(13)(13)(13)(13)(13)(13)
D--xxxxxxxxxx--x---x---x---x---x---x---x---x---x---x----x---x---x---x---x---x--
A--7777777777/-9---9---9---9---9---9---9---9---9---9--/(11)(11)(11)(11)(11)(11)
E------------------------------------------------------------------------------

Continuacin De Brigde A:
e------------------------------------------------------------
B------------------------------------------------------------
G--(13)(13)(13)(13)/(14)(14)(14)(14)(14)(14)(14)(14)(14)(14)-
D---x---x---x---x---x---x---x---x---x---x---x---x---x---x----
A--(11)(11)(11)(11)/(12)(12)(12)(12)(12)(12)(12)(12)(12)(12)-
E----------------------------------------------------------X1

( Intro A And Verse A )

Interlude A:
e------------------------------------------------------------
B------------------------------------------------------------
G------------------------------------------------------------
D-----------44444444-66666666-22222222-----------------------
A--22222222-22222222-44444444-00000000-----------------------
E--00000000------------------------------------------------X1
PM ...................................

Interlude B:
e------------------------------------------------------------
B------------------------------------------------------------
G------------------------------------------------------------
D-----------44444444-66666666-22-----------------------------
A--22222222-22222222-44444444-00-----------------------------
E--00000000------------------------------------------------X1
PM .............................

Verse B:
e------------------------------------------------------------
B------------------------------------------------------------
G------------------------------------------------------------
D-----------44444444-66666666-22222222-----------------------
A--22222222-22222222-44444444-00000000-----------------------
E--00000000------------------------------------------------X2

Verse C:
e------------------------------------------------------------
B------------------------------------------------------------
G-----------44444444-66666666-22222222-----------------------
D--22222222-44444444-66666666-22222222-----------------------
A--22222222-22222222-44444444-00000000-----------------------
E--00000000------------------------------------------------X6

Verse D:
e------------------------------------------------------------
B------------------------------------------------------------
G-----------4444---------------------------------------------
D--222222---444444---66--------------------------------------
A--22222222-22222222-4444-00---------------------------------
E--00000000------------------------------------------------X1


Bueno...!. Eso es todo, espero que no se pierdan en los trastes.
Y suerte a todos(as).
O.K.

-----------------------------
|  , ,   |
|     http://akords.org     |
-----------------------------

 (: 0)
    :
  • Aliens Exist
  • Aliens Exist
  • Josie
  • Please Take Me Home
  • Romeo And Rebecca
  •  
    , . '.

     
      

    BLIBL-