|  
 
:  
  : :  
      ?    

  |

akords.org » B » Blink 182 » 21 Days

Blink 182 - 21 Days 5

ok, im tabbing this out coz all the other tabs ive seen on this site are WRONG! (not to
too bigheaded...) Tom plays with two strings through the intro. i only know this
i listened to this song pretty much every day since i bought buddah. That was a while ago...

I've tabbed the bass parts as secondary guitar parts, because not everyone plays bass!

Anyways, play your little hearts out....


D5 A5 G5 F#m E5 B5 C#5 F#5 Asus2 C#m7
e|----------------2--------------------0------0---|
B|----------------2--------------------0------0---|
G|---7------------2----9-----------11--2------6---|
D|---7---7---5----4----9---9---11--11--2------6---|
A|---5---7---5----4----7---9---11--9---0------4---|
E|-------5---3----2--------7---9------------------|


Intro (Part 1 - Guitar 1)
e|--------------------------------------------------------------|
B|--------------------------------------------------------------|
G|--2--/11--/7--7--/11-11----2--/11--9--9-7-7-----------------|
D|-0-00---00--00--0---0---00--00---00--00-0--0-0----------------|
A|--------------------------------------------------------------|
E|--------------------------------------------------------------|

Intro (part 1 - Guitar 1) ending
e|--------------------------------------------------------------|
B|--------------------------------------------------------------|
G|--2-/7-/11-11-9--9--7-7---------------------------------------|
D|-0-0--0------0-00--0-0-0--------------------------------------|
A|--------------------------------------------------------------|
E|--------------------------------------------------------------|

(Intro Guitar 2) Just play around with this part
e|----------------|----------------------------------------------|
B|----------------|----------------------------------------------|
G|----0--0--0-0-0-|-(0)-------------(0)--------------------------|
D|--55-55-55-5-5--|----5-/7-/9-7-5----5-/7-/9-/11-------------|
A|----------------|----------------------------------------------|
E|----------------|----------------------------------------------|
(This part kickis in after the Intro plays a few times)

Intro (part 2 - Guitar 1) - fast tempo and hard downstroke on the ^s (every four beats)

e|---------------------------------------------------------------------|
B|---------------------------------------------------------------------|
G|--2222--/11111111--/7777--/11111111----2222--/11111111--/9999-/7777--|
D|--0000---x-x-x-x----xxxx---x-x-x-x-----0000---x-x-x-x----xxxx--xxxx--|
A|---------9-9-9-9----5555---9-9-9-9------------9-9-9-9----7777--5555--|
E|---------------------------------------------------------------------|
^ ^ ^ ^ ^ ^ ^ ^


D5 A5 G5 F#m
My mind wanders as i'm trying not to fall in love with you
D5 /E5 B5 C#5 B5
Coz every time I awake I ponder on my mistakes of
D5 A5 G5 F#m
What I said,it is always my esteem that i sure loose
D5 /E5 B5 C#5 B5
Playing those stupid games, as I always end up chasing you


(Now play intro part 2)


D5 E5 F#5 E5
I cant help myself anymore
D5 E5 F#5 E5
Rehearsing my thoughts as I'm too scared to come to your door
D5 E5 F#5 E5
I pushed it all aside just to stand next to you
D5 E5 F#5 D5 /Eb5 /Asus2 (let ring)
Now you won't talk to me for something that I di..dn't do

It's not gonna work!

(play this part really soft - guitar 2 can also play the intro again)

D5 E5 /F#5 D5
And I'm trying not to think of you
D5 E5 /F#5 D5
I'm all confused as I think of the things that I would do
D5 E5 /F#5 D5
I'm all shook up as I get all nervous inside
D5 E5 /F#5 D5
My emotions are something that I will always hide my ways


Song Ending
e|--------------------------------------------------------------|
B|--------------------------------------------------------------|
G|--7--9--11--12--11--9-----7--9--11--9--7-7--------------------|
D|-0-00-00--00---0---0--00---00-00--00-0--0---------------------|
A|--------------------------------------------------------------|
E|--------------------------------------------------------------|

(Pick up the high tempo again now)

e|--------------------------------------------------------------|
B|--------------------------------------------------------------|
G|--7777-9999-1111-1212-1111-99—--------------------------------|
D|--xxxx-xxxx-x-x--x-x--x-x--xx---------------------------------|
A|--5555-7777-9-9--1010-9-9--77—--------------------------------|
E|--------------------------------------------------------------|
^ ^ ^ ^

e|--------------------------------------------------------------|
B|--------------------------------------------------------------|
G|--7777-9999-1111-99—7777--------------------------------------|
D|--xxxx-xxxx-x-x--xx-xxxx--------------------------------------|
A|--5555-7777-9-9--77-5555--------------------------------------|
E|--------------------------------------------------------------|
^ ^ ^ ^

e|--------------------------------------------------------------|
B|--------------------------------------------------------------|
G|---7777-9999-1111-99—7777-7~----------------------------------|
D|---xxxx-xxxx-x-x--xx-xxxx-7~----------------------------------|
A|---5555-7777-9-9--77-5550-5~----------------------------------|
E|--------------------------------------------------------------|
when ending the song, use this for the final bar = all downstrokes

ok, thats it! Any comments or questions just gimmie a holla!

-----------------------------
|  , ,   |
|     http://akords.org     |
-----------------------------

 (: 0)
    :
  • Dont Leave Me
  • Dont Leave Me
  • Easy Target
  • Always
  • Easy Target
  •  
    , . '.

    ':*
    E-Mail:*
    :
    , : *
     
      

    BLIBL-