|  
 
:  
  : :  
      ?    

  |

akords.org » B » Blink 182 » 21 Days

Blink 182 - 21 Days 3

Author/Artist:Blink 182
Title:21 Days
Album:Buddha
Transcribed by:Rob Woolfenden-Sophie,Michael,Gaz and Norris rule!!

This is my favourite song of the 1st albumn(after flyswatter) and its
pretty easy and fun to play,this is as near as pefect and if you cover
it it sounds 10 times better coz tom can't sing for the life in him on
this album.-Standard tuning,play with cd

CHORDS:
D5 G5 f#5 E5 E5 Eb5
e------------------------------------
b------------------------------------
g-----7---------------9----2----6---
d-----7----5----4----9----2----6---
a-----5----5----4----7----0----4---
e----------3----2-------------------

INTRO:
a:-------5
adding the rest of G5 sounds good,but this is how its played on the cd

RIFF 1:
starts of with a clean sound (x4) then distorted (x2)
e--------------------------------------------------------
b--------------------------------------------------------
g--2s11--7--7--11--11--------------2s11--9--9--7--7-
d--------------------------------------------------------
a--------------------------------------------------------
e--------------------------------------------------------

VERSE 1:
D5
G5 F#5
My mind wanders as i'm trying not to fall in love with you
D5 G5 E5
Coz every time I awake I ponder on my mistakes of
D5 G5 F#5
What I said,it is always my esteem that i sure loose
D5 G5
E5
Playing those stupid games,as I always end up chasing you

Riff 1x2
E5 G5 Riff2 x2 RIFF 2
I can't help myself anymore e-----------------------------

b------------------------------

g---7--7--7--7--7--7--7--7---

d---7--7--7-----7--7--7------

a---5--5--5-----5--5--5------

e------------------------------
E5
G5 riff 2
Rehearsing my thoughts as i'm too scared to come to your door
E5 G5 riff 2
I pushed it all inside just too stand next to you
E5 G5 D5-Eb5-E5
Now you won't talk to me for something that i didn't do
D5(play once and let it fade out)
It's not gonna work

RIFF 3:(bass guitar)
e---------------------------------------------
b---------------------------------------------
g---------------------------------------------
d---------------------------------------------
a--5-5-5-5-5-5-5-5-7-7-7-7-9-9-9-9-5-5-5-
e---------------------------------------------

VERSE 2:

Riff 3
And i'm trying not to think of you
I'm all confused as i think of the things that i would do
I'm all shook up as i get all nervous inside
My emothios are something that i wil always hide away

OUTRO:
again starts clean(x2)then distorted(x8)
e-------------------------------------------------------
b--------------------------------------------------------
g--7--9--11--12--11--9-----------7--9--11--9--7--7--
d-------------------------------------------------------
a--------------------------------------------------------
e--------------------------------------------------------

Questions comments or requests(blink,green day,placebo,idlewild,foo
fighters ect.,)mail me at robwolfy182@hotmail.com
p.s-don't be too blunt i'm only 16

-----------------------------
|  , ,   |
|     http://akords.org     |
-----------------------------

 (: 0)
    :
  • 21 Days
  • 21 Days
  • 21 Days
  • Party Song
  • Fire Water Burn
  •  
    , . '.

    ':*
    E-Mail:*
    :
    , : *
     
      

    BLIBL-