|  
 
:  
  : :  
      ?    

  |

akords.org » B » Blind Guardian » Mirror Mirror

Blind Guardian - Mirror Mirror 3

#----------------------------------PLEASE NOTE---------------------------------#
#This file is the author's own work and represents their interpretation of the #
#song. You may only use this file for private study, scholarship, or research. #
#------------------------------------------------------------------------------#

MIRROR MIRROR
As recorded by Blind Guardian
(From the 1998 Album NIGHTFALL IN THE MIDDLE-EARTH)


Transcribed by Jones

Words by Krsch Music by Olbrich / Krsch



A5
x x 8 x 6 x G5
x x 6 x 4 x B5/F#
x x 5 5 x x C5/G
x x 6 6 x x
C/A
x x 8 6 6 x G
x x 6 5 4 x Bm/F#
x x 5 5 4 x C/G
x x 6 6 6 x
F
x x 4 3 2 x Dm/A
x x 8 8 7 x G/E
x x 3 1 1 x Eb/BbV
x x 9 9 9 x
Eb
x x 2 1 0 x Bb/F
x x 4 4 4 x Cm/G
x x 6 6 5 x D/A
x x 8 8 8 x
C/AXVIII
x x 20 18 18 x GXVI
x x 18 17 16 x FXIV
x x 16 15 14 x Dm/AXIX
x x 20 20 19 x
E5
x 8 10 10 x x D5
x 6 8 8 x x Bb/G
x x 6 4 4 x


Gtr I (D# G# C# F# A# D#) - 'Rhythm Guitar'
Gtr II (D# G# C# F# A# D#) - 'Lead Guitar'
Gtr III (D# G# C# F# A# D#) - 'Additional Guitars'
Gtr IV (D# G# C# F# A# D#) - 'Keyboard Background'
Gtr V (D# G# C# F# A# D#) - 'Keyboard Melodies'


Intro
Q=180
A5 G5 A5 B5/F#C5/G B5/C5/G
4/4
Gtr IV
W Q Q Q Q W Q Q H
| | | | | | |
/ / / / / / /

Gtr I
W Q Q Q Q W Q Q H
*|----------|-------------|----------|------------|
*|----------|-------------|----------|------------|
*|----------|----------5--|-6--------|-5--6-------|
*|-8--------|-6--8-----5--|-6--------|-5--6-------|
*|-8--------|-6--8-----3--|-4--------|-3--4-------|
*|-6--------|-4--6--------|----------|------------|


A5 G5 A5 B5/F#C5/G B5/C5/G
W Q Q Q Q W Q Q H
| | | | | | |
/ / / / / / /

W Q Q Q Q W Q Q H
|----------|-------------|----------|------------|
|----------|-------------|----------|------------|
|----------|----------5--|-6--------|-5--6-------|
|-8--------|-6--8-----5--|-6--------|-5--6-------|
|-8--------|-6--8-----3--|-4--------|-3--4-------|
|-6--------|-4--6--------|----------|------------|
|
| Gtr V
| W Q Q H W W
|----------|-------------|----------|------------|
|-6--------|-4--6--------|----------|------------|
|----------|-------------|----------|------------|
|----------|-------------|----------|------------|
|----------|-------------|----------|------------|
|----------|-------------|----------|------------|


C/A G C/A Bm/F#
4/4
W Q Q Q Q
| | | |
/ / / /

W Q Q Q Q
||------------------|---------------------|
||o-----------------|---------------------|
||------------------|------------------5--|
||----8-------------|---6-----8--------5--|
||o---8-------------|---6-----8--------3--|
||----6-------------|---4-----6-----------|
|
| Gtrs II, III
| H H Q Q Q Q
||--(13)----(13)----|-(16)--(13)--11------|
||o--14------14-----|--13----14----7--13--|
||---10------10-----|---8----10--------8--|
||------------------|---------------------|
||o-----------------|---------------------|
||------------------|---------------------|
| H H Q Q Q Q
|
| Gtr V
| H H Q Q Q Q
||---13------13-----|--11----13---14--11--|
||o-----------------|---------------------|
||---10------10-----|---8----10---11---8--|
||------------------|---------------------|
||o-----------------|---------------------|
||------------------|---------------------|


C/G Bm/F# C/G
W Q Q H
| | |
/ / /

W Q Q H
|-----------------|-------------------||
|-----------------|------------------o||
|---6-------------|---5-----6---------||
|---6-------------|---5-----6---------||
|---4-------------|---3-----4--------o||
|-----------------|-------------------||
|
| H H Q Q H
|-(13)----(13)----|-(16)--(13)--------||
|--14------14-----|--13----14--------o||
|--10------10-----|---8----10---------||
|-----------------|-------------------||
|-----------------|------------------o||
|-----------------|-------------------||
| H H Q Q H
|
| H H Q Q H
|--13------13-----|--11----13---------||
|-----------------|------------------o||
|--10------10-----|---8----10---------||
|-----------------|-------------------||
|-----------------|------------------o||
|-----------------|-------------------||


Interlude
C/A C/A G C/A
H H Q Q H
| | | |
/ / / /

H H Q Q H
|----------------|--------------------|
|----------------|--------------------|
|----------------|--------------------|
|--8-----8-------|-----------6---8----|
|--8-----8-------|-----------6---8----|
|--6-----6-------|-----------4---6----|
|
| H Q. E S S E Q H
|----------------|--------------------|
|--------------9-|--8h=9p=8-----------|
|-10----10-------|-----------8--10----|
|----------------|--------------------|
|----------------|--------------------|
|----------------|--------------------|
|
| H Q. E S S E Q H
|-13----13----16-|-15h16p15-11--13----|
|----------------|--------------------|
|-10----10----13-|-12h13p12--8--10----|
|----------------|--------------------|
|----------------|--------------------|
|----------------|--------------------|


C/G C/G C/G G G G
Q Q H Q Q H
| | | | | |
/ / / / / /

Q E E H Q E E H
|-------------------|---------------------|
|-------------------|---------------------|
|--6---6----6-------|---------------------|
|--6---6----6-------|--6---6----6---------|
|--4---4----4-------|--6---6----6---------|
|-------------------|--4---4----4---------|
|
| Q Q Q. E Q Q E E Q
|-------------------|---------------------|
|-------------------|---------------------|
|-----10----8-------|------8--------------|
|-11-------------11-|-10-------11-10------|
|-------------------|----------------11---|
|-------------------|---------------------|
|
| Q Q Q. E Q Q E E Q
|--9--13---11-----9-|--8--11----9--8--4---|
|-------------------|---------------------|
|--6--10----8-----6-|--5---8----6--5--1---|
|-------------------|---------------------|
|-------------------|---------------------|
|-------------------|---------------------|


C/A C/A G C/A
H H Q Q H
| | | |
/ / / /

H H Q Q H
|--------------------|--------------------------|
|--------------------|--------------------------|
|--------------------|--------------------------|
|---8-------8--------|--------------6-----8-----|
|---8-------8--------|--------------6-----8-----|
|---6-------6--------|--------------4-----6-----|
|
| Gtrs II, III
| H Q. E S S E Q H
|----------------(9)-|-(8)h(9)p(8)--------------|
|-(11)----(11)----9--|--8---9---8--(9)--(11)----|
|--10------10--------|--------------8----10-----|
|--------------------|--------------------------|
|--------------------|--------------------------|
|--------------------|--------------------------|
| H Q. E S S E Q H
|
| H Q. E S S E Q H
|--13------13----16--|-15h=16p=15--11----13-----|
|--------------------|--------------------------|
|--10------10----13--|-12h=13p=12---8----10-----|
|--------------------|--------------------------|
|--------------------|--------------------------|
|--------------------|--------------------------|


C/G C/G C/G G G G
Q Q H Q Q H
| | | | | |
/ / / / / /

Q E E H Q E E H
|-------------------|---------------------|
|-------------------|---------------------|
|--6---6----6-------|---------------------|
|--6---6----6-------|--6---6----6---------|
|--4---4----4-------|--6---6----6---------|
|-------------------|--4---4----4---------|
|
| Q Q Q. E Q Q E E Q
|-------------------|---------------------|
|-------------------|---------------------|
|-----10----8-------|------8--------------|
|-11-------------11-|-10-------11-10------|
|-------------------|----------------11---|
|-------------------|---------------------|
|
| Q Q Q. E Q Q E E Q
|--9--13---11-----9-|--8--11----9--8--4---|
|-------------------|---------------------|
|--6--10----8-----6-|--5---8----6--5--1---|
|-------------------|---------------------|
|-------------------|---------------------|
|-------------------|---------------------|


Verse I
C/A
W +W
| |
/ /

E S S S S S S E S S S S S S E S S S S S S E S S E S S
||------------------------------|----------------------------|
||o-----------------------------|----------------------------|
||------------------------------|----------------------------|
||--8-------------8-------------|--8-------------8-----8-----|
||o-8-------------8-------------|--8-------------8-----8-----|
||--6-6-6-6-6-6-6-6-6-6-6-6-6-6-|--6-6-6-6-6-6-6-6-6-6-6-6-6-|


C/G G F
W H H
| | |
/ / /

E S S S S S S E S S S S S S E S S S S S S E S S E S S
|-----------------------------|----------------------------||
|-----------------------------|---------------------------o||
|-6-------------6-------------|----------------------------||
|-6-------------6-------------|-6-------------4-----4------||
|-4-4-4-4-4-4-4-4-4-4-4-4-4-4-|-6-------------4-----4-----o||
|-----------------------------|-4-4-4-4-4-4-4-2-2-2-2-2-2--||


C/A
W +W
| |
/ /

Gtr I
Q S S S S Q S S S S Q S S S S Q S S S S
||---------------------------------|-------------------------|
||o--------------------------------|-------------------------|
||---------------------------------|-------------------------|
||---8--------------8--------------|--8----------8-----------|
||o--8--------------8--------------|--8----------8-----------|
||---6---6-6--6--6--6-----6-6--6-6-|--6--6-6-6-6-6--6-6-6-6--|
|
| Gtrs II, V
| Q. S S E E E E H H
||---------------------------------|-------------------------|
||o-11-------14p13h14-11-13--------|-11----------------------|
||----------------------------13---|-------------------------|
||---------------------------------|-------------------------|
||o--------------------------------|-------------------------|
||---------------------------------|-------------------------|


C/G G
W W
| |
/ /

Q S S S S Q S S S S W
|--------------------------------|---------------------||
|--------------------------------|--------------------o||
|--6--------------6--------------|---------------------||
|--6--------------6--------------|--6------------------||
|--4---4-4--4--4--4-----4-4--4-4-|--6-----------------o||
|--------------------------------|--4------------------||
|
| Q. S S E E E E Q. E E E Q
|-------------11-13----11--------|---------------------||
|-14-------14-------14------13---|-------11-13-14-13--o||
|--------------------------------|-13------------------||
|--------------------------------|---------------------||
|--------------------------------|--------------------o||
|--------------------------------|---------------------||


Interlude II
C/A D/A C/A
W H H
| | |
/ / /

Gtr I
Q S S S S Q S S S S Q Q Q S S S S
||----------------------------|--------------------------|
||o---------------------------|--------------------------|
||----------------------------|--8--------8--------------|
||---8-----------8------------|--8--------8---8----------|
||o--8-----------8------------|--6--------6---8----------|
||---6--6-6-6-6--6---6-6--6-6-|---------------6--6-6-6-6-|
|
| Gtr II
| H Q. E S S E Q H
||----------------------------|--------------------------|
||o-----------------------9---|--8h=9p=8-----------------|
||--10----------10------------|-----------8--10----------|
||----------------------------|--------------------------|
||o---------------------------|--------------------------|
||----------------------------|--------------------------|
|
| Gtr V
| H Q. E S S E Q H
||--13----------13-------16---|-15h16p15-11--13----------|
||o---------------------------|--------------------------|
||--10----------10-------13---|-12h13p12--8--10----------|
||----------------------------|--------------------------|
||o---------------------------|--------------------------|
||----------------------------|--------------------------|


C/G G F
W H H
| | |
/ / /

Q S S S S Q S S S S Q S S S S Q Q
|----------------------------|---------------------------||
|----------------------------|--------------------------o||
|--6------------6------------|---------------------------||
|--6------------6------------|--6------------4-----4-----||
|--4---4-4-4-4--4---4-4--4-4-|--6------------4-----4----o||
|----------------------------|--4---4-4-4-4--2-----2-----||
|
| Q Q Q. E Q Q E E Q
|----------------------------|---------------------------||
|----------------------------|--------------------------o||
|-----10--------8------------|------8--------------------||
|-11--------------------11---|-10-----------11-10--------||
|----------------------------|--------------------11----o||
|----------------------------|---------------------------||
|
| Q Q Q. E Q Q E E Q
|--9--13-------11--------9---|--8--11--------9--8--4-----||
|----------------------------|--------------------------o||
|--6--10--------8--------6---|--5---8--------6--5--1-----||
|----------------------------|---------------------------||
|----------------------------|--------------------------o||
|----------------------------|---------------------------||


Chorus
C/A G Dm/A F G
W W W H H
| | | | |
/ / / / /

Gtr I
W W W H H
||---------------------|-----------|-----------|-----------------||
||o--------------------|-----------|-----------|----------------o||
||---------------------|-----------|--8--------|-----------------||
||---8-----------------|--6--------|--8--------|--4--------6-----||
||o--8-----------------|--6--------|--6--------|--4--------6----o||
||---6-----------------|--4--------|-----------|--2--------4-----||
|
| Gtrs II, III
| ~~~~~~~~~~~~~~ ~~
| H. +Q W W H H
||---------------------|-----------|-----------|-----------------||
||o-16b18=======(16)r--|-16--------|-----------|----------------o||
||--17b18=======(17)r--|-17--------|-15--------|-17b18----17-----||
||---------------------|-----------|-16--------|-16-------18-----||
||o--------------------|-----------|-----------|----------------o||
||---------------------|-----------|-----------|-----------------||
| H. +Q W W H H
|
| Gtr V
| W W W H H
||---------------------|-----------|-----------|-----------------||
||o-18-----------------|-16--------|-----------|----------------o||
||--18-----------------|-17--------|-15--------|-18-------17-----||
||---------------------|-----------|-16--------|-16-------18-----||
||o--------------------|-----------|-----------|----------------o||
||---------------------|-----------|-----------|-----------------||


C/AXVIII
W
|
/

S S S S S S S S S S S S S S S S
||-------------------------------------------|
||o------------------------------------------|
||-------------------------------------------|
||-------------------------------------------|
||o------------------------------------------|
||---6-----6-6-6-6-6-6-6-6-6-6-6---6---6-6-6-|
|
| H. +Q
||-------------------------------------------|
||o-16b18========================(16)r-------|
||--17b18========================(17)r-------|
||-------------------------------------------|
||o------------------------------------------|
||-------------------------------------------|
| H. +Q
|
| W
||-------------------------------------------|
||o-18---------------------------------------|
||--18---------------------------------------|
||-------------------------------------------|
||o------------------------------------------|
||-------------------------------------------|


GXVI
W
|
/

S S S S S S S S S S S S S S S S
|-----------------------------------|
|-----------------------------------|
|-----------------------------------|
|-----------------------------------|
|-----------------------------------|
|--4-4-4-4-4-4-4-4-4-4-4-4-4-4-4-4--|
|
| ~~
| W
|-----------------------------------|
|-16--------------------------------|
|-17--------------------------------|
|-----------------------------------|
|-----------------------------------|
|-----------------------------------|
| W
|
| W
|-----------------------------------|
|-16--------------------------------|
|-17--------------------------------|
|-----------------------------------|
|-----------------------------------|
|-----------------------------------|


Dm/AXIX FXIV GXVI
W H H
| | |
/ / /

S S S S S S S S S S S S S S S S S S S S S S S S S S S S S S S S
|----------------------------------|---------------------------------------||
|----------------------------------|--------------------------------------o||
|----------------------------------|---------------------------------------||
|----------------------------------|---------------------------------------||
|--6-6-6-6-6-6-6-6-6-6-6-6-6-6-6-6-|--------------------------------------o||
|----------------------------------|--2----2-2-2-2-2-2-2--4-4-4-4-4-4-4-4--||
|
| ~~ ~~
| W H H
|----------------------------------|---------------------------------------||
|----------------------------------|--------------------------------------o||
|-15-------------------------------|-17b18---------------17----------------||
|-16-------------------------------|-16------------------18----------------||
|----------------------------------|--------------------------------------o||
|----------------------------------|---------------------------------------||
| W H H
|
| W H H
|----------------------------------|---------------------------------------||
|----------------------------------|--------------------------------------o||
|-15-------------------------------|-18------------------17----------------||
|-16-------------------------------|-16------------------18----------------||
|----------------------------------|--------------------------------------o||
|----------------------------------|---------------------------------------||


Bridge
C/A C/G G C/A C/G D/A
H Q Q H Q Q
| | | | | |
/ / / / / /

H Q Q H Q Q
||--------------------------|----------------------------|
||o-------------------------|----------------------------|
||---------------6----------|--------------6-----8-------|
||---8-----------6-----6----|--8-----------6-----8-------|
||o--8-----------4-----6----|--8-----------4-----6-------|
||---6-----------------4----|--6-------------------------|
|
| Gtrs II, V
| Q. S S E E E E Q. S S E E S S E
||--------------13----11----|----------------11----------|
||o-11----11h13----14----13-|-11----11h13-14----13h14p13-|
||--------------------------|----------------------------|
||--------------------------|----------------------------|
||o-------------------------|----------------------------|
||--------------------------|----------------------------|


C/A C/G G C/A G/E
H Q Q H H
| | | | |
/ / / / /

H Q Q H H
|-------------------------|------------------------||
|-------------------------|-----------------------o||
|--------------6----------|------------------------||
|--8-----------6-----6----|--8-----------3---------||
|--8-----------4-----6----|--8-----------3--------o||
|--6-----------------4----|--6-----------1---------||
|
| Q. S S E E E E Q. S S E E Q
|-------------13----11----|------------------------||
|-11----11h13----14----13-|-11----11h13-14----11--o||
|-------------------------|----------------13------||
|-------------------------|------------------------||
|-------------------------|-----------------------o||
|-------------------------|------------------------||


Interlude III
C/A G Bm/F#C/G
W +H Q Q
| | | |
/ / / /

Gtr I
Q S S S S Q S S S S Q S S S S Q Q
||-------------------------|---------------------|
||o------------------------|---------------------|
||-------------------------|------------------5--|
||---8----------8----------|---8-----------6--5--|
||o--8----------8----------|---8-----------6--3--|
||---6--6-6-6-6-6--6-6-6-6-|---6---6-6-6-6-4-----|
|
| Gtr V
| W +W
||-------------------------|---------------------|
||o-14---------------------|-(14)----------------|
||--15---------------------|-(15)----------------|
||-------------------------|---------------------|
||o------------------------|---------------------|
||-------------------------|---------------------|


Bm/FC/G
W Q Q H
| | |
/ / /

Q S S S S Q S S S S Q Q H 4x
|------------------------|--------------||
|------------------------|-------------o||
|--6----------6----------|--5--6--------||
|--6----------6----------|--5--6--------||
|--4--4-4-4-4-4--4-4-4-4-|--3--4-------o||
|------------------------|--------------||
|
| W W 4x
|-16---------------------|--------------||
|------------------------|-16----------o||
|------------------------|--------------||
|------------------------|--------------||
|------------------------|-------------o||
|------------------------|--------------||


Bridge II
E5 D5
W +W +W W
| | | |
/ / / /

Gtr I
Q E E Q Q Q Q H Q E E Q Q Q Q H
||-------------------|---------------|------------------|-------------||
||o------------------|---------------|------------------|------------o||
||--10--10-10-10--6--|--8--10--10----|-10--10-10-10--6--|-8--6--8-----||
||--10--10-11-10--6--|--8--10--10----|-10--10-11-10--6--|-6--4--8-----||
||o--8---8--8--8--4--|--6---8---8----|--8---8--8--8--4--|-6--4--6----o||
||-------------------|---------------|------------------|-------------||


Verse II
C/A
W +W
| |
/ /

E S S S S S S E S S S S S S E S S S S S S E S S E S S
||------------------------------|----------------------------|
||o-----------------------------|----------------------------|
||------------------------------|----------------------------|
||--8-------------8-------------|--8-------------8-----8-----|
||o-8-------------8-------------|--8-------------8-----8-----|
||--6-6-6-6-6-6-6-6-6-6-6-6-6-6-|--6-6-6-6-6-6-6-6-6-6-6-6-6-|


C/G G F
W H H
| | |
/ / /

E S S S S S S E S S S S S S E S S S S S S E S S E S S
|-----------------------------|----------------------------||
|-----------------------------|---------------------------o||
|-6-------------6-------------|----------------------------||
|-6-------------6-------------|-6-------------4-----4------||
|-4-4-4-4-4-4-4-4-4-4-4-4-4-4-|-6-------------4-----4-----o||
|-----------------------------|-4-4-4-4-4-4-4-2-2-2-2-2-2--||


Bridge III
C/G F G F G
H H H Q Q
| | | | |
/ / / / /

H H H Q Q
||------------------------------|------------------|
||o-----------------------------|------------------|
||---6--------------------------|------------------|
||---6---------------4----------|--6--------4---6--|
||o--4---------------4----------|--6--------4---6--|
||-------------------2----------|--4--------2---4--|
|
| Gtrs II, V
| Q S S S S E E E E Q. E Q Q
||---------------14-16-14-------|------------------|
||o-14--14-16-18----------18-14-|-16----14-16--18--|
||------------------------------|------------------|
||------------------------------|------------------|
||o-----------------------------|------------------|
||------------------------------|------------------|


C/G F G F G
H H H Q Q
| | | | |
/ / / / /

H H H Q Q
|-----------------------|------------------------||
|-----------------------|-----------------------o||
|--6--------------------|------------------------||
|--6---------4----------|--6--------4-----6------||
|--4---------4----------|--6--------4-----6-----o||
|------------2----------|--4--------2-----4------||
|
| Q E E E E E E Q. E E E E E
|-----------------------|------------------------||
|-----------------------|----------------16-18--o||
|-18-----15-18-17-15----|-------15-17-18---------||
|-----18-------------16-|-18---------------------||
|-----------------------|-----------------------o||
|-----------------------|------------------------||


Chorus
C/A G Dm/A F G
W W W H H
| | | | |
/ / / / /

Gtr I
W W W H H
||---------------------|-----------|-----------|-----------------||
||o--------------------|-----------|-----------|----------------o||
||---------------------|-----------|--8--------|-----------------||
||---8-----------------|--6--------|--8--------|--4--------6-----||
||o--8-----------------|--6--------|--6--------|--4--------6----o||
||---6-----------------|--4--------|-----------|--2--------4-----||
|
| Gtrs II, III
| ~~~~~~~~~~~~~~ ~~
| H. +Q W W H H
||---------------------|-----------|-----------|-----------------||
||o-16b18=======(16)r--|-16--------|-----------|----------------o||
||--17b18=======(17)r--|-17--------|-15--------|-17b18----17-----||
||---------------------|-----------|-16--------|-16-------18-----||
||o--------------------|-----------|-----------|----------------o||
||---------------------|-----------|-----------|-----------------||
| H. +Q W W H H
|
| Gtr V
| W W W H H
||---------------------|-----------|-----------|-----------------||
||o-18-----------------|-16--------|-----------|----------------o||
||--18-----------------|-17--------|-15--------|-18-------17-----||
||---------------------|-----------|-16--------|-16-------18-----||
||o--------------------|-----------|-----------|----------------o||
||---------------------|-----------|-----------|-----------------||


C/AXVIII
W
|
/

S S S S S S S S S S S S S S S S
||-------------------------------------------|
||o------------------------------------------|
||-------------------------------------------|
||-------------------------------------------|
||o------------------------------------------|
||---6-----6-6-6-6-6-6-6-6-6-6-6---6---6-6-6-|
|
| H. +Q
||-------------------------------------------|
||o-16b18========================(16)r-------|
||--17b18========================(17)r-------|
||-------------------------------------------|
||o------------------------------------------|
||-------------------------------------------|
| H. +Q
|
| W
||-------------------------------------------|
||o-18---------------------------------------|
||--18---------------------------------------|
||-------------------------------------------|
||o------------------------------------------|
||-------------------------------------------|


GXVI
W
|
/

S S S S S S S S S S S S S S S S
|-----------------------------------|
|-----------------------------------|
|-----------------------------------|
|-----------------------------------|
|-----------------------------------|
|--4-4-4-4-4-4-4-4-4-4-4-4-4-4-4-4--|
|
| ~~
| W
|-----------------------------------|
|-16--------------------------------|
|-17--------------------------------|
|-----------------------------------|
|-----------------------------------|
|-----------------------------------|
| W
|
| W
|-----------------------------------|
|-16--------------------------------|
|-17--------------------------------|
|-----------------------------------|
|-----------------------------------|
|-----------------------------------|


Dm/AXIX FXIV GXVI
W H H
| | |
/ / /

S S S S S S S S S S S S S S S S S S S S S S S S S S S S S S S S
|----------------------------------|---------------------------------------||
|----------------------------------|--------------------------------------o||
|----------------------------------|---------------------------------------||
|----------------------------------|---------------------------------------||
|--6-6-6-6-6-6-6-6-6-6-6-6-6-6-6-6-|--------------------------------------o||
|----------------------------------|--2----2-2-2-2-2-2-2--4-4-4-4-4-4-4-4--||
|
| ~~ ~~
| W H H
|----------------------------------|---------------------------------------||
|----------------------------------|--------------------------------------o||
|-15-------------------------------|-17b18---------------17----------------||
|-16-------------------------------|-16------------------18----------------||
|----------------------------------|--------------------------------------o||
|----------------------------------|---------------------------------------||
| W H H
|
| W H H
|----------------------------------|---------------------------------------||
|----------------------------------|--------------------------------------o||
|-15-------------------------------|-18------------------17----------------||
|-16-------------------------------|-16------------------18----------------||
|----------------------------------|--------------------------------------o||
|----------------------------------|---------------------------------------||


Interlude IV
C/A D/A
W W
| |
/ /

W W
||-----------------|-----------------|
||o----------------|-----------------|
||-----------------|--8--------------|
||---8-------------|--8--------------|
||o--8-------------|--6--------------|
||---6-------------|-----------------|
|
| H H H E E Q
||-----------------|-----------------|
||o-------16b18----|-16--------------|
||--15-----8b10----|--8----18-17-15--|
||---8-------------|-------11-10--8--|
||o----------------|-----------------|
||-----------------|-----------------|
| H H H E E Q
|
| H H H E E Q
||-----------------|-----------------|
||o----------------|-----------------|
||--------10-------|--8--------------|
||---8-------------|-------11-10--8--|
||o----------------|-----------------|
||-----------------|-----------------|


C/A
W +W
| |
/ /

W +W
|----------------|--------------------------||
|----------------|-------------------------o||
|----------------|--------------------------||
|--8-------------|-(8)----------------------||
|--8-------------|-(8)---------------------o||
|--6-------------|-(6)----------------------||
|
| H H H S S S S Q
|----------------|--------------------------||
|-18----20b21----|-20-----18h20p18-16------o||
|-10----12b13----|-12-----10-12-10--8-18----||
|----------------|--------------------11----||
|----------------|-------------------------o||
|----------------|--------------------------||
| H H H S S S S Q
|
| H H H S S S S Q
|----------------|--------------------------||
|----------------|-------------------------o||
|-10----13-------|-12-----10h12p10--8-------||
|----------------|--------------------11----||
|----------------|-------------------------o||
|----------------|--------------------------||


C/A
W +W
| |
/ /

E E E E Q E E W
|--------------------|------------------------|
|--------------------|------------------------|
|------------3-------|------------------------|
|------------3-------|------------------------|
|-1--1--1-1--1---1-1-|------------------------|
|--------------------|------------------------|
|
| Gtr II
| E E E E Q E E W
|--------------------|------------------------|
|---------7----------|------------------------|
|------10---10-------|------------------------|
|-8-11----------11-8-|------------------------|
|--------------------|------------------------|
|--------------------|------------------------|
|
| Gtr V
| W E E E E Q E E
|--------------------|------------------------|
|--------------------|-11--18-20-21-20--18-14-|
|--------------------|------------------------|
|--------------------|--8--15-17-18-17--15-11-|
|--------------------|------------------------|
|-6------------------|-(6)--------------------|
W +W


+W +W
| |
/ /

E E E E Q E E W
|---------------------|------------------------|
|---------------------|------------------------|
|-------------3-------|------------------------|
|-------------3-------|------------------------|
|--1--1--1-1--1---1-1-|------------------------|
|---------------------|------------------------|
|
| E E E E Q E E W
|---------------------|------------------------|
|----------7----------|------------------------|
|-------10---10-------|------------------------|
|--8-11----------11-8-|------------------------|
|---------------------|------------------------|
|---------------------|------------------------|
|
| W E E E E Q E E
|---------------------|------------------------|
|---------------------|-11--18-20-21-20--18-14-|
|---------------------|------------------------|
|---------------------|--8--15-17-18-17--15-11-|
|---------------------|------------------------|
|--6------------------|-(6)--------------------|
W +W


G F
W W
| |
/ /

W W
|-----------------------------|-----------------|
|-----------------------------|-----------------|
|-----------------------------|-----------------|
|--6--------------------------|--4--------------|
|--6--------------------------|--4--------------|
|--4--------------------------|--2--------------|
|
| E E E E Q S S S S W
|-----------------------------|-----------------|
|-----------------------------|-----------------|
|-13----10-11-13--11h13p11-10-|-----------------|
|----13-----------------------|-13--------------|
|-----------------------------|-----------------|
|-----------------------------|-----------------|
|
| W E E E E Q Q
|-----------------------------|-----------------|
|-----------------------------|----9-11-9-7--6--|
|-----------------------------|--8--------------|
|-----------------------------|----6--8-6-4--3--|
|-----------------------------|--6--------------|
|-----------------------------|-----------------|


G F
W W
| |
/ /

W W
|-----------------------------|--------------------|
|-----------------------------|--------------------|
|-----------------------------|--------------------|
|--6--------------------------|--4-----------------|
|--6--------------------------|--4-----------------|
|--4--------------------------|--2-----------------|
|
| E E E E Q S S S S H. Q
|-----------------------------|--------------------|
|-----------------------------|--------------------|
|-13----10-11-13--11h13p11-10-|--------------------|
|----13-----------------------|-13------------15--|
|-----------------------------|--------------------|
|-----------------------------|--------------------|
|
| W E E E E Q Q
|-----------------------------|--------------------|
|-----------------------------|-----9-11-9-7---6---|
|-----------------------------|--8-----------------|
|-----------------------------|-----6--8-6-4---3---|
|-----------------------------|--6-----------------|
|-----------------------------|--------------------|


Guitar solo
C/A G C/A
H. Q W
| | |
/ / /

Q S S S S E S S Q Q S S S S E S S E S S
|-----------------------------------|------------------------------------|
|-----------------------------------|------------------------------------|
|-----------------------------------|------------------------------------|
|--8-------------------8-------6----|--8---------------8------8----------|
|--8-------------------8-------6----|--8---------------8------8----------|
|--6---------6-6--6-6--6--6-6--4----|--6---6--6--6--6--6-6-6--6-----6--6-|
|
| Gtr II
| E S S E E E E E E Q S S S S Q S S S S
|-----------------------------------|------------------------------------|
|-----------------------------------|------------------------------------|
|-----10--8---------------8---------|---------------8-10-----10--8-------|
|--8--------11---10----8------10----|--8---8-10-11-----------------11-10-|
|--------------------------------11-|------------------------------------|
|-----------------------------------|------------------------------------|
|
| Gtr V
| E S S E E E E E E Q S S S S Q S S S S
|-----13-11--9-----------11---------|--------------11-13-----13-11-------|
|-11-------------13---11------13--9-|-11--11-13-14-----------------14-13-|
|-----10--8--6------------8---------|---------------8-10-----10--8-------|
|--8-------------10----8------10--6-|--8---8-10-11-----------------11-10-|
|-----------------------------------|------------------------------------|
|-----------------------------------|------------------------------------|


C/A G C/A
H. Q W
| | |
/ / /

Q S S S S E S S Q Q S S S S E S S E S S
|-----------------------------------|--------------------------------|
|-----------------------------------|--------------------------------|
|-----------------------------------|--------------------------------|
|--8-------------------8-------6----|--8---------------8-----8-------|
|--8-------------------8-------6----|--8---------------8-----8-------|
|--6---------6-6--6-6--6--6-6--4----|--6---6--6--6--6--6-6-6-6-6-6---|
|
| E S S E E E E E E Q S S S S H
|-----------------------------------|--------------------------------|
|-----------------------------------|------9-------------------------|
|-----10--8---------------8---------|--------10-----8-10-------------|
|--8--------11---10----8------10----|--8--------11-------------------|
|--------------------------------11-|--------------------------------|
|-----------------------------------|--------------------------------|
|
| E S S E E E E E E Q S S S S H
|-----13-11--9-----------11---------|-----16-13----11-13-------------|
|-11-------------13---11------13--9-|-11---9----14-------------------|
|-----10--8--6------------8---------|--------10-----8-10-------------|
|--8-------------10----8------10--6-|--8--------11-------------------|
|-----------------------------------|--------------------------------|
|-----------------------------------|--------------------------------|


Eb/BbV Dm/A Eb F
H. Q H. Q
| | | |
/ / / /

Q S S S S E S S E S S Q S S S S E S S E S S
|------------------------------------|------------------------------------|
|------------------------------------|------------------------------------|
|--9--------------9-------8----------|--9--------------9------11----------|
|--9--------------9-------8----------|--9--------------9------11----------|
|--7----7-7--7-7--7--7-7--6-----6--6-|--7----7-7--7-7--7--7-7--9-----9--9-|
|------------------------------------|------------------------------------|
|
| Gtrs II, V
| Q E E E E S S S S Q E E E E S S S S
|------------------------------------|------------------------------------|
|----------------12-14---12h14p12----|----------------11-12---11h12p11----|
|-13--------13--------------------15-|-13--------13--------------------11-|
|------14----------------------------|------14----------------------------|
|------------------------------------|------------------------------------|
|------------------------------------|------------------------------------|


Eb Dm/A Eb F
H. Q H. Q
| | | |
/ / / /

Q S S S S E S S E S S Q S S S S E S S E S S
|------------------------------------|---------------------------------------|
|------------------------------------|---------------------------------------|
|--9--------------9-------8----------|--9--------------9------11-------------|
|--9--------------9-------8----------|--9--------------9------11-------------|
|--7----7-7--7-7--7--7-7--6-----6--6-|--7----7-7--7-7--7--7-7--9-----9--9----|
|------------------------------------|---------------------------------------|
|
| Q E E E E S S S S Q E E E E S S S S
|------------------------------------|---------------------------------------|
|----------------12-14---12h14p12----|----------------11-12---11h12p11-------|
|-13--------13--------------------15-|-13--------13--------------------11----|
|------14----------------------------|------14-------------------------------|
|------------------------------------|---------------------------------------|
|------------------------------------|---------------------------------------|


G Eb
W W
| |
/ /

W W
|----------------------------|----------------------------|
|----------------------------|----------------------------|
|----------------------------|----------------------------|
|--6-------------------------|--2-------------------------|
|--6-------------------------|--2-------------------------|
|--4-------------------------|--0-------------------------|
|
| Gtrs II, V
| E S S E E E E E E E S S E E E E E E
|----------------------------|----------------------------|
|----16p14----------------14-|----16p14----------14-------|
|-13-------16-15-13-15-16----|-13-------16-15-13----15-11-|
|----------------------------|----------------------------|
|----------------------------|----------------------------|
|----------------------------|----------------------------|
|
| Gtr III
| W W
|----------------------------|----------------------------|
|----------------------------|----------------------------|
|----------------------------|----------------------------|
|----------------------------|----------------------------|
|----------------------------|----------------------------|
|----------------------------|----------------------------|


Bb/F Cm/G G
H H W
| | |
/ / /

H H W
|-------------------------------|-----------------------|
|-------------------------------|-----------------------|
|--4-----------------6----------|-----------------------|
|--4-----------------6----------|--6--------------------|
|--2-----------------4----------|--6--------------------|
|-------------------------------|--4--------------------|
|
| S S E E S S E E E E Q S S S S H
|-------------------------------|-----------------------|
|-16p14h16-17-16p14h16-14-------|--------------14-16----|
|-------------------------16-15-|-13--13-15-16----------|
|-------------------------------|-----------------------|
|-------------------------------|-----------------------|
|-------------------------------|-----------------------|
|
| W Q S S S S H
|-------------------------------|--------------12-14----|
|-------------------------------|-12--12-14-16----------|
|-------------------------------|-----------------------|
|-------------------------------|-----------------------|
|-------------------------------|-----------------------|
|-------------------------------|-----------------------|


G Eb
W W
| |
/ /

W W
|--------------------|--------------------|
|--------------------|--------------------|
|--------------------|--------------------|
|--6-----------------|--2-----------------|
|--6-----------------|--2-----------------|
|--4-----------------|--0-----------------|
|
| Gtrs II, III
| Q E E H Q E E H
|-16--16-18-18b19----|--------------------|
|--9---9-11-11b12----|-17--17-19-19b21----|
|--------------------|--9---9-11-11b13----|
|--------------------|--------------------|
|--------------------|--------------------|
|--------------------|--------------------|
| Q E E H Q E E H
|
| Gtr V
| Q E E H Q E E H
|--------------------|--------------------|
|--9---9-11-12-------|--------------------|
|--------------------|--9---9-11-12-------|
|--------------------|--------------------|
|--------------------|--------------------|
|--------------------|--------------------|


Bb/F Cm/G G
H H W
| | |
/ / /

H H H. Q
|----------------------------|------------------------------|
|----------------------------|------------------------------|
|--4--------------6----------|------------------------------|
|--4--------------6----------|--6---------------------------|
|--2--------------4----------|--6------------------9-------|
|----------------------------|--4---------------------------|
|
| S S E E E E E E E S S E E E H
|----------------12----------|------------------------------|
|-16p14-11-14-16-14-14----14-|-16p14-11-14----16------------|
|-16-15-13-15-16----15-15-15-|-16-15-13-15-15-13------------|
|----------------------16----|-------------16---------9h13--|
|----------------------------|------------------------------|
|----------------------------|------------------------------|
| S S E E E E E E E S S E E E Q. S S
|
| S S E E E E E E E S S E E E H
|----------------------------|------------------------------|
|-12-11----11-12-14----------|-12-11----11------------------|
|-------13----------15----15-|-------13----11-13------------|
|----------------------16----|------------------------------|
|----------------------------|------------------------------|
|----------------------------|------------------------------|


Bb/F
W
|
/

S S S S S S S S S S S S S S S S
||---------------------------------------------|
||o--------------------------------------------|
||---------------------------------------------|
||---------------------------------------------|
||o--2-2-2-2--2-2-2-2--2--2-2--2--2--2-2--2----|
||---------------------------------------------|
|
| Q Q E. S E. S
||--14---------------------------14------14b16-|
||o----------16-------12------16---------------|
||--11---------------------------11------11b13-|
||-----------13--------9------13---------------|
||o--------------------------------------------|
||---------------------------------------------|
| Q Q E. S E. S
|
| Gtr V
| Q Q E. S E. S
||---------------------------------------------|
||o--------------------------------------------|
||--11---------------------------11------13----|
||-----------13--------9------13---------------|
||o--------------------------------------------|
||---------------------------------------------|


Eb Bb/F
W W
| |
/ /

S S S S S S S S S S S S S S S S S S S S S S S S S S S S S S S S
|----------------------------------------|-----------------------------------------|
|----------------------------------------|-----------------------------------------|
|----------------------------------------|-----------------------------------------|
|----------------------------------------|-----------------------------------------|
|----------------------------------------|--2-2-2-2--2-2-2-2--2--2-2--2--2--2-2--2-|
|--0--0-0-0-0-0-0-0-0-0-0-0---0--0--0--0-|-----------------------------------------|
|
| H. +E S S Q Q E. S E. S
|-14------------------------(14)---------|-14-----------------------------------12-|
|----------------------------------12h16-|----------16-------12------14-16---------|
|-11------------------------(11)---------|-11------------------------------------9-|
|-----------------------------------9h12-|----------13--------9------11-13---------|
|----------------------------------------|-----------------------------------------|
|----------------------------------------|-----------------------------------------|
| H. +E S S Q Q E. S E. S
|
| W Q Q E. S E. S
|----------------------------------------|-----------------------------------------|
|----------------------------------------|-----------------------------------------|
|-11-------------------------------------|-11------------------------------------9-|
|----------------------------------------|----------13--------9------11-13---------|
|----------------------------------------|-----------------------------------------|
|----------------------------------------|-----------------------------------------|


1. 2.
F F
W W
| |
/ /

S S S S S S S S S S S S S S S S S S S S S S S S S S S S S S S S
|-----------------------------------------||----------------------------------||
|----------------------------------------o||----------------------------------||
|-----------------------------------------||----------------------------------||
|-----------------------------------------||----------------------------------||
|----------------------------------------o||----------------------------------||
|--2--2-2-2-2-2-2-2-2-2-2-2---2--2--2--2--||--2-2-2-2-2-2-2-2-2-2-2-2-2-2-2-2-||
|
| Gtrs II, III
| H. +E S S W
|-----------------------------------------||----------------------------------||
|-14------------------------(14)---12h16-o||-14-------------------------------||
|-----------------------------------------||----------------------------------||
|-11------------------------(11)----9h13--||-11-------------------------------||
|----------------------------------------o||----------------------------------||
|-----------------------------------------||----------------------------------||
| H. +E S S W
|
| Gtr V
| W W
|-----------------------------------------||----------------------------------||
|----------------------------------------o||----------------------------------||
|-----------------------------------------||----------------------------------||
|-11--------------------------------------||-11-------------------------------||
|----------------------------------------o||----------------------------------||
|-----------------------------------------||----------------------------------||


Verse III
Bb/F Eb
W W
| |
/ /

Q S S S S Q S S S S Q S S S S Q S S S S
||-------------------------------|-----------------------|
||o------------------------------|-----------------------|
||-------------------------------|-----------------------|
||--6--------------6-------------|-6----------6----------|
||o-6--------------6-------------|-6----------6----------|
||--4---4-4--4--4--4----4-4--4-4-|-4--4-4-4-4-4--4-4-4-4-|
|
| Gtrs II, V
| Q. S S E E E E H H
||-------------------------------|-----------------------|
||o-9-------12p11h12-9-11--------|-9---------------------|
||--------------------------11---|-----------------------|
||-------------------------------|-----------------------|
||o------------------------------|-----------------------|
||-------------------------------|-----------------------|


Bb/F F
W W
| |
/ /

Q S S S S Q S S S S W
|------------------------------|----------------------||
|------------------------------|---------------------o||
|--4-------------4-------------|----------------------||
|--4-------------4-------------|--4-------------------||
|--2---2-2--2-2--2----2-2--2-2-|--4------------------o||
|------------------------------|--2-------------------||
|
| Q. S S E E E E Q. E E E Q
|-------------9-11----9--------|----------------------||
|-12-------12------12-----11---|-------9-11-12-11----o||
|------------------------------|-11-------------------||
|------------------------------|----------------------||
|------------------------------|---------------------o||
|------------------------------|----------------------||


Bb/F Eb F Eb F
H H H Q Q
| | | | |
/ / / / /

Q S S S S Q S S S S Q S S S S Q Q
||----------------------------------|-------------------------------|
||o---------------------------------|-------------------------------|
||---4------------------------------|-------------------------------|
||---4---------------2--------------|--4-------------------2-----4--|
||o--2-----2-2--2-2--2--------------|--4-------------------2-----4--|
||-------------------0-----0-0--0-0-|--2---------2-2--2-2--0-----2--|
|
| Gtrs II, III
| E E E E E E E E E E E E E E Q
||---7------------------------------|--6---7-----6------------------|
||o-16--------------16--------------|-14--16----14----9----7--------|
||-----16------16------16-16---16---|----------------16---15--9--8--|
||--------16------------------------|------------------------18-16--|
||o---------------------------------|-------------------------------|
||----------------------------------|-------------------------------|
| W E E E E E E Q
|
| Gtr V
| W E. S E E E E Q
||----------------------------------|-------------------------------|
||o-16------------------------------|-14-----16-14------------------|
||----------------------------------|----------------16---15-13-----|
||----------------------------------|---------------------------16--|
||o---------------------------------|-------------------------------|
||----------------------------------|-------------------------------|


Bb/F Eb F Eb F
H H H Q Q
| | | | |
/ / / / /

Q S S S S Q S S S S Q S S S S Q Q
|---------------------------------|---------------------------------||
|---------------------------------|--------------------------------o||
|--4------------------------------|---------------------------------||
|--4---------------2--------------|--4-------------------2-----4----||
|--2-----2-2--2-2--2--------------|--4-------------------2-----4---o||
|------------------0-----0-0--0-0-|--2---------2-2--2-2--0-----2----||
|
| E E E E E E E E E E E E E E Q
|--7------------------------------|--6---7-----6--------------------||
|-16--------------16--------------|-14--16----14----9----7---------o||
|----16------16------16-16---16---|----------------16---15--9--8----||
|-------16------------------------|------------------------18-16----||
|---------------------------------|--------------------------------o||
|---------------------------------|---------------------------------||
| W E E E E E E Q
|
| W E. S E E E E Q
|---------------------------------|---------------------------------||
|-16------------------------------|-14-----16-14-------------------o||
|---------------------------------|----------------16---15-13-------||
|---------------------------------|---------------------------16----||
|---------------------------------|--------------------------------o||
|---------------------------------|---------------------------------||


Pre Chorus
C/G F G F G
H H H Q Q
| | | | |
/ / / / /

Q S S S S Q S S S S Q S S S S Q Q
||----------------------------------|-----------------------|
||o---------------------------------|-----------------------|
||---6------------------------------|-----------------------|
||---6---------------4--------------|--6-------------4---6--|
||o--4---4--4--4--4--4--------------|--6-------------4---6--|
||-------------------2-----2-2--2-2-|--4---4-4--4-4--2---4--|
|
| Gtr II
| Q S S S S E E E E Q. E Q Q
||---------------14-16-14-----------|-----------------------|
||o-14--14-16-18----------18---14---|-16-------14---16--18--|
||----------------------------------|-----------------------|
||----------------------------------|-----------------------|
||o---------------------------------|-----------------------|
||----------------------------------|-----------------------|
|
| Gtr V
| Q S S S S E E E E Q. E Q Q
||---------------14-16-14-----------|-----------------------|
||o-14--14-16-18----------18---14---|-16-------14---16--18--|
||----------------------------------|-----------------------|
||----------------------------------|-----------------------|
||o---------------------------------|-----------------------|
||----------------------------------|-----------------------|


C/G F G F G
H H H Q Q
| | | | |
/ / / / /

Q S S S S Q S S S S Q S S S S Q Q
|-------------------------------|-------------------------------||
|-------------------------------|------------------------------o||
|--6----------------------------|-------------------------------||
|--6-------------4--------------|--6-------------4-----6--------||
|--4---4-4--4-4--4--------------|--6-------------4-----6-------o||
|----------------2-----2-2--2-2-|--4---4-4--4-4--2-----4--------||
|
| Q E E E E E E Q. E E E E E
|-------------------------------|-------------------------------||
|-------------------------------|---------------------16-18----o||
|-18-------15---18-17-15--------|----------15---17-18-----------||
|-----18-------------------16---|-18----------------------------||
|-------------------------------|------------------------------o||
|-------------------------------|-------------------------------||
|
| Q E E E E E E Q. E E E E E
|-------------------------------|-------------------------------||
|-------------------------------|---------------------16-18----o||
|-18-------15---18-17-15--------|----------15---17-18-----------||
|-----18-------------------16---|-18----------------------------||
|-------------------------------|------------------------------o||
|-------------------------------|-------------------------------||


Chorus
C/A G Dm/A F G
W W W H H
| | | | |
/ / / / /

Gtr I
W W W H H
||---------------------|-----------|-----------|-----------------||
||o--------------------|-----------|-----------|----------------o||
||---------------------|-----------|--8--------|-----------------||
||---8-----------------|--6--------|--8--------|--4--------6-----||
||o--8-----------------|--6--------|--6--------|--4--------6----o||
||---6-----------------|--4--------|-----------|--2--------4-----||
|
| Gtrs II, III
| ~~~~~~~~~~~~~~ ~~
| H. +Q W W H H
||---------------------|-----------|-----------|-----------------||
||o-16b18=======(16)r--|-16--------|-----------|----------------o||
||--17b18=======(17)r--|-17--------|-15--------|-17b18----17-----||
||---------------------|-----------|-16--------|-16-------18-----||
||o--------------------|-----------|-----------|----------------o||
||---------------------|-----------|-----------|-----------------||
| H. +Q W W H H
|
| Gtr V
| W W W H H
||---------------------|-----------|-----------|-----------------||
||o-18-----------------|-16--------|-----------|----------------o||
||--18-----------------|-17--------|-15--------|-18-------17-----||
||---------------------|-----------|-16--------|-16-------18-----||
||o--------------------|-----------|-----------|----------------o||
||---------------------|-----------|-----------|-----------------||


C/AXVIII
W
|
/

S S S S S S S S S S S S S S S S
||-------------------------------------------|
||o------------------------------------------|
||-------------------------------------------|
||-------------------------------------------|
||o------------------------------------------|
||---6-----6-6-6-6-6-6-6-6-6-6-6---6---6-6-6-|
|
| H. +Q
||-------------------------------------------|
||o-16b18========================(16)r-------|
||--17b18========================(17)r-------|
||-------------------------------------------|
||o------------------------------------------|
||-------------------------------------------|
| H. +Q
|
| W
||-------------------------------------------|
||o-18---------------------------------------|
||--18---------------------------------------|
||-------------------------------------------|
||o------------------------------------------|
||-------------------------------------------|


GXVI
W
|
/

S S S S S S S S S S S S S S S S
|-----------------------------------|
|-----------------------------------|
|-----------------------------------|
|-----------------------------------|
|-----------------------------------|
|--4-4-4-4-4-4-4-4-4-4-4-4-4-4-4-4--|
|
| ~~
| W
|-----------------------------------|
|-16--------------------------------|
|-17--------------------------------|
|-----------------------------------|
|-----------------------------------|
|-----------------------------------|
| W
|
| W
|-----------------------------------|
|-16--------------------------------|
|-17--------------------------------|
|-----------------------------------|
|-----------------------------------|
|-----------------------------------|


Dm/AXIX FXIV GXVI
W H H
| | |
/ / /

S S S S S S S S S S S S S S S S S S S S S S S S S S S S S S S S
|----------------------------------|---------------------------------------||
|----------------------------------|--------------------------------------o||
|----------------------------------|---------------------------------------||
|----------------------------------|---------------------------------------||
|--6-6-6-6-6-6-6-6-6-6-6-6-6-6-6-6-|--------------------------------------o||
|----------------------------------|--2----2-2-2-2-2-2-2--4-4-4-4-4-4-4-4--||
|
| ~~ ~~
| W H H
|----------------------------------|---------------------------------------||
|----------------------------------|--------------------------------------o||
|-15-------------------------------|-17b18---------------17----------------||
|-16-------------------------------|-16------------------18----------------||
|----------------------------------|--------------------------------------o||
|----------------------------------|---------------------------------------||
| W H H
|
| W H H
|----------------------------------|---------------------------------------||
|----------------------------------|--------------------------------------o||
|-15-------------------------------|-18------------------17----------------||
|-16-------------------------------|-16------------------18----------------||
|----------------------------------|--------------------------------------o||
|----------------------------------|---------------------------------------||


Poslude
C/A F
W W
| |
/ /

Q S S S S Q E E Q S S S S Q E E
||--------------------------|---------------------|
||o-------------------------|---------------------|
||---3------------------3-3-|---------------------|
||---3------------------3-3-|--4--------------4-4-|
||o--1---1--1--1-1--1---1-1-|--4--------------4-4-|
||--------------------------|--2--2-2-2-2--2--2-2-|
|
| Q S S E Q Q H H
||--------------------------|---------------------|
||o-------------------------|---------------------|
||--10--10h11p10---13--10---|-11------------------|
||--------------------------|-------------11------|
||o-------------------------|---------------------|
||--------------------------|---------------------|
|
| Q S S E Q Q H H
||--------------------------|---------------------|
||o-------------------------|---------------------|
||--10--10h11p10---13--10---|-11------------------|
||--------------------------|-------------11------|
||o-------------------------|---------------------|
||--------------------------|---------------------|


C/A G
W W
| |
/ /

Q S S S S Q E E Q S S S S H
|----------------------------|------------------------||
|----------------------------|-----------------------o||
|--3------------------3----3-|------------------------||
|--3------------------3----3-|--6---------------6-----||
|--1---1--1--1-1--1---1----1-|--6---------------6----o||
|----------------------------|--4-----4-4--4-4--4-----||
|
| Q S S E Q Q E E E E H
|----------------------------|------------------------||
|----------------------------|-----------------------o||
|-10--10h11p10---13--13b15---|-------10---11----------||
|----------------------------|-11-13-----------13-----||
|----------------------------|-----------------------o||
|----------------------------|------------------------||
|
| Q S S E Q Q E E E E H
|----------------------------|------------------------||
|----------------------------|-----------------------o||
|-10--10h11p10---13--15------|-------10---11----------||
|----------------------------|-11-13-----------13-----||
|----------------------------|-----------------------o||
|----------------------------|------------------------||


C/AXVIII FXIV C/AXVIII
W W W
| | |
/ / /

Gtr I
W W W
|-------------------|-------------|-------------------|
|-------------------|-------------|-------------------|
|-------------------|-------------|-------------------|
|--8----------------|--4----------|--8----------------|
|--8----------------|--4----------|--8----------------|
|--6----------------|--2----------|--6----------------|
|
| Gtrs II, V
| Q E E Q Q H H Q E E Q Q
|-------------------|-------------|-------------------|
|-------------------|-------------|-------------------|
|-10--10-11-10------|-------------|-10--10-11-10------|
|---------------13--|-11-----8----|---------------13--|
|-------------------|-------------|-------------------|
|-------------------|-------------|-------------------|
|
| Gtr III
| Q E E Q Q H H Q E E Q Q
|-13--13-14-13--11--|-------------|-13--13-14-13--11--|
|-------------------|-14----11----|-------------------|
|-18--18-20-18--17--|-------------|-18--18-20-18--17--|
|-------------------|-20----16----|-------------------|
|-------------------|-------------|-------------------|
|-------------------|-------------|-------------------|


GXVI C/AXVIII
W W
| |
/ /

W W
|-------------------|-------------------|
|-------------------|-------------------|
|-------------------|-------------------|
|--6----------------|--8----------------|
|--6----------------|--8----------------|
|--4----------------|--6----------------|
|
| E E E E H Q E E Q Q
|-------------------|-------------------|
|-------------------|-------------------|
|-------10-11-------|-10--10-11-10------|
|-11-13-------13----|---------------13--|
|-------------------|-------------------|
|-------------------|-------------------|
|
| E E E E H Q E E Q Q
|----11-13-14-11----|-13--13-14-13--11--|
|-14----------------|-------------------|
|----17-18-20-17----|-18--18-20-18--17--|
|-20----------------|-------------------|
|-------------------|-------------------|
|-------------------|-------------------|


FXIV
W +W +W
| | |
/ / /

W +W +W
|-------------|-------------|-------------|
|-------------|-------------|-------------|
|-------------|-------------|-------------|
|--4----------|--(4)--------|--(4)--------|
|--4----------|--(4)--------|--(4)--------|
|--2----------|--(2)--------|--(2)--------|
|
| H H +W +W
|-------------|-------------|-------------|
|-------------|-------------|-------------|
|-------------|-------------|-------------|
|-11-----8----|--(8)--------|--(8)--------|
|-------------|-------------|-------------|
|-------------|-------------|-------------|
|
| H H +W +W
|-------------|-------------|-------------|
|-14----11----|-(11)--------|-(11)--------|
|-------------|-------------|-------------|
|-20----16----|-(16)--------|-(16)--------|
|-------------|-------------|-------------|
|-------------|-------------|-------------|


C/AXVIII GXVI FXIV GXVIC/AXVIII
H. Q Q Q H
| | | | |
/ / / / /

Q S S S S Q Q Q Q H
|------------------------|-------------------*|
|------------------------|-------------------*|
|--3--------------3------|-------------------*|
|--3--------------3---6--|--4-----6----8-----*|
|--1----1-1--1-1--1---6--|--4-----6----8-----*|
|---------------------4--|--2-----4----6-----*|
|
| Q E E Q Q E E Q H
|------------------------|-------------------*|
|------------------------|-------------------*|
|-10---10---11---10------|-------------------*|
|--------------------13--|-11-13-10----8-----*|
|------------------------|-------------------*|
|------------------------|-------------------*|
|
| Q E E Q Q E E Q H
|-13---13---14---13--11--|----11-------------*|
|------------------------|-14----13----------*|
|-18---18---20---18--17--|----17-----[11]----*|
|------------------------|-20----18----------*|
|------------------------|-------------------*|
|------------------------|-------------------*|




--------------------------------------------------------------------------------


Duration Legend
---------------
W - whole; H - half; Q - quarter; E - 8th; S - 16th; T - 32nd; X - 64th; a - acciaccatura
+ - note tied to previous; . - note dotted; .. - note double dotted
Uncapitalized letters represent notes that are staccato (1/2 duration)
Irregular groupings are notated above the duration line
Duration letters will always appear directly above the note/fret number it represents the
duration for. Duration letters with no fret number below them represent rests. Multi-
bar rests are notated in the form Wxn, where n is the number of bars to rest for. Low
melody durations appear below the staff

Tablature Legend
----------------
h - hammer-on
p - pull-off
b - bend
pb - pre-bend
r - bend release (if no number after the r, then release immediately)
/ - slide into or out of (from/to "nowhere")
s - legato slide
S - shift slide
- natural harmonic
[n] - artificial harmonic
n(n) - tapped harmonic
~ - vibrato
tr - trill
T - tap
TP - trem. picking
PM - palm muting
n/ - tremolo bar dip; n = amount to dip
n - tremolo bar down
n/ - tremolo bar up
/n - tremolo bar inverted dip
= - hold bend; also acts as connecting device for hammers/pulls
<> - volume swell (louder/softer)
x - on rhythm slash represents muted slash
o - on rhythm slash represents single note slash

Misc Legend
-----------
| - bar
|| - double bar
||o - repeat start
o|| - repeat end
*| - double bar (ending)
: - bar (freetime)
$ - Segno
& - Coda
Tempo markers - = BPM(8/16=s8/s16), where s8 = swing 8ths, s16 = swing 16ths

-----------------------------
|  , ,   |
|     http://akords.org     |
-----------------------------

 (: 0)
    :
  • Under A Violet Moon
  • Larger Than Life 5
  • War Machine
  • Nightfall
  • Get Down
  •  
    , . '.

    ':*
    E-Mail:*
    :
    , : *
     
      

    BLIBL-