|  
 
:  
  : :  
      ?    

  |

akords.org » B » Blind Guardian » Mirror Mirror

Blind Guardian - Mirror Mirror 2

BLIND GUARDIAN - MIRROR MIRROR
From the album NIGHTFALL IN MIDDLE EARTH
Copyright 1998 VIRGIN RECORDS

Version 1.0 - March 1999

Transcribed by: Richard Broadhead II ()

For Questions, Comments, Newest Version, or Corrections contact
Rich Broadhead: at

Check Out My Web Page For More Transcriptions at:


.. - palm mute / - slide up to
- slide down to ~ - vibrato
h - hammer on b - bend
p - pull off Suffixes for bend
ph - pinch harmonic
f - full bend h - half bend
* - see comment r - release t - tap bend
X - percussion mute ~ - vibrato bend
@ - slight palm mute () - ghost note, sustained note

Tune to Eb (Eb, Ab, Db, Gb, Bb, Eb)

Riff A
|-----------------------------------------------------------------------|
|-----------------------------------------------------------------------|
|-----------------------------------------------------------------------| TRUMPETS
|-----------------------------------------------------------------------|
|-----------------------------------------------------------------------|
|-----------------------------------------------------------------------|
| |
|-----------------|-----------------|-----------------|-----------------|
|-----------------|-----------------|-----------------|-----------------|
|-----------------|-----------------|-----------------|-----------------| GUITAR I
|-----------------|--------------5--|-6---------------|-5--6------------|
|-8---------------|-6--8---------3--|-4---------------|-3--4------------|
|-6---------------|-4--6------------|-----------------|-----------------|


|-----------------------------------------------------------------------|
|-----------------------------------------------------------------------|
|-10-----10---------8--10-----------------------------------------------| TRUMPETS
|-----------------------------------------------------------------------|
|-----------------------------------------------------------------------|
|-----------------------------------------------------------------------|
| |
|-----------------|-----------------|-----------------|-----------------|
|-----------------|-----------------|-----------------|-----------------|
|-----------------|-----------------|-----------------|-----------------| GUITAR I
|-----------------|--------------5--|-6---------------|-5--6------------|
|-8---------------|-6--8---------3--|-4---------------|-3--4------------|
|-6---------------|-4--6------------|-----------------|-----------------|


Repeat Riff A (play guitars 2, 3, and 4 below twice over it)

|-----------------|-----------------|-----------------|-----------------|
|-----------------|-----------------|-----------------|-----------------|
|-10------10------|--8--10--11---8--|-10------10------|--8--10----------|
|-11------11------|-10--11--13--10--|-11------11------|-10--11----------|
|-13------13------|-11--13--15--11--|-13------13------|-11--13----------|
|-----------------|-----------------|-----------------|-----------------|
(possible octave harmony from pedal)


Riff B
|-----------------|-----------------|-----------------|-----------------|
|-----------------|---h-p-----------|-----------------|-----------------|
|-10~----10~---13-|-121312---10~----|-----10--8~------|-----8-----------|
|-----------------|-------13--------|-11-----------11-|-10~----11-10----|
|-----------------|-----------------|-----------------|--------------11-|
|-----------------|-----------------|-----------------|-----------------|
| |
|-----------------|-----------------|-----------------|-----------------|
|-----------------|-----------------|-----------------|-----------------|
|-----------------|-----------------|-----------------|-----------------|
|-----------------|-----------------|-6-------6-------|-----------------|
|-8-------8------|-----------------|-4-------4-------|-6-------6-------|
|-6-------6------|-----------------|-----------------|-4-------4-------|


|-----------------|-----------------|-----------------|-----------------|
|-----------------|---h-p-----------|-----------------|-----------------|
|-10~----10~---13-|-121312---10~----|-----10--8~------|-----8-----------|
|-----------------|-------13--------|-11-----------11-|-10~----11-10----|
|-----------------|-----------------|-----------------|--------------11-|
|-----------------|-----------------|-----------------|-----------------|
| |
|-----------------|---h-p-----------|-----------------|-----------------|
|-11~----11~---14-|-131413---11~----|------9--7~------|-----7-----------|
|-----------------|-------13--------|-10-----------10-|-8~-----10--8----|
|-----------------|-----------------|-----------------|---------------9-|
|-----------------|-----------------|-----------------|-----------------|
|-----------------|-----------------|-----------------|-----------------|
| |
|-----------------|-----------------|-----------------|-----------------|
|-----------------|-----------------|-----------------|-----------------|
|-----------------|-----------------|-----------------|-----------------|
|-----------------|-----------------|-6-------6-------|-----------------|
|-8-------8------|-----------------|-4-------4-------|-6-------6-------|
|-6-------6------|-----------------|-----------------|-4-------4-------|


Riff C.1 (guitars 2 and 3 octave harmony from pedal, )
(sometimes noted, otherwise assumed )
|---------------------|-----------------------|
|---------------------|-----------------------|
|-10--------10--------|-10h11--8h10-6---------| GUITARS
|-11--------11--------|-11h13-10h11-8---------| II & III
|---------------------|-----------------------|
|---------------------|-----------------------|
| |
|---------------------|-----------------------|
|---------------------|-----------------------|
|---------------------|-----------------------| GUITAR I
|---------------------|-----------------------|
|-8---------8---------|-8---------8-----8-----|
|-6-6666666-6-6666666-|-6-6666666-6-666-6-666-|
....... ....... ....... ... ...

|---------------------|------------------------|
|-----------------9---|------7---14-13----14-13|
|------10----8---10---|------8---10--8-13-10-8-| GUITARS
|-11--------10--------|-10-------11-10-10-11-10| II & III
|---------------------|----------------11------|
|---------------------|------------------------|
| |
|---------------------|------------------------|
|---------------------|------------------------|
|---------------------|------------------------| GUITAR I
|-6---------6---------|------------------------|
|-4-4444444-4-4444444-|-6---------4----4-------|
|---------------------|-4-4444444-2----2-------|
....... ....... .......

Riff C.2 (use the same rhythm as Riff C.1)
|---------------------|-----------------------|
|-14--------14--------|-----------------------|
|-10--------10--------|-10h11--8h10-10--------| GUITARS
|-11--------11--------|-11h13-10h11-11--------| II & III
|---------------------|-----------------------|
|---------------------|-----------------------|

|---------------------|-----------------------|
|---------------------|------7---14-13--------|
|------10----8---10---|------8---10--8--13----| GUITARS
|-11--------10--------|-10-------11-10--10----| II & III
|---------------------|-----------------11----|
|---------------------|-----------------------|


Riff D (play twice)
|---------------------|-(9)~----------------|-9~-----91113-9-11-8-|-(8)~----------------|
|-11~--141314-11-13-9-|-11-----------------|---------------------|-9-----11-13-14-13---|
|---------------------|---------------------|---------------------|---------------------|
|---------------------|---------------------|---------------------|---------------------|
|---------------------|---------------------|---------------------|---------------------|
|---------------------|---------------------|---------------------|---------------------|
| |
|---------------------|---------------------|---------------------|---------------------|
|---------------------|---------------------|---------------------|---------------------|
|---------------------|---------------------|---------------------|---------------------|
|-3---------3---------|-----------3---------|-6---------6---------|---------------------|
|-1----1111-1----1111-|-4---------1----1111-|-4----4444-4----4444-|-6----6666-6----6666-|
|---------------------|-2----2222-----------|---------------------|-4----4444-4----4444-|
.... .... .... .... .... ....


Riff E (play twice)
|-13--------13-----16-|-151615----13~-------|------13---11~---14--|------11-------------|
|---------------------|---h-p-16-------1413-|-14~-----------------|-13-------14-13------|
|---------------------|------------------h--|---------------------|----------------14~--|
|---------------------|---------------------|---------------------|---------------------|
|---------------------|---------------------|---------------------|---------------------|
|---------------------|---------------------|---------------------|---------------------|
| |
|---------------------|---------------------|---------------------|---------------------|
|---------------------|---------------------|---------------------|---------------------|
|---------------------|-3----3--------------|-6---------6---------|---------------------|
|-3---------3---------|-1----1----3---------|-6---------6---------|---------------------|
|-1----1111-1----1111-|-----------1----1111-|-4----4444-4----4444-|-6---------4----4----|
|---------------------|---------------------|---------------------|-4----4444-2----2----|
.... .... .... .... .... ....


CHORUS RIFF (see below note)
|-11bf+r-----------|-11---------------|-14---------------|-20bh+r--20-------|
|-13bh+r-----------|-13---------------|-11---------------|-13bh+r--13-------|
|-13bf+r-----------|-13---------------|-11---------------|-13bf+r--13-------|
|------------------|------------------|------------------|------------------|
|------------------|------------------|------------------|------------------|
|------------------|------------------|------------------|------------------|
| |
|------------------|------------------|------------------|------------------|
|------------------|------------------|------------------|------------------|
|------------------|------------------|------------------|------------------|
|------------------|------------------|-8----------------|------------------|
|-8----------------|-6----------------|-6----------------|-4-------6--------|
|-6----------------|-4----------------|------------------|-2-------4--------|


|-11bf+r-----------|-11---------------|-14---------------|-20bh+r--20-------|
|-13bh+r-----------|-13---------------|-11---------------|-13bh+r--13-------|
|-13bf+r-----------|-13---------------|-11---------------|-13bf+r--13-------|
|------------------|------------------|------------------|------------------|
|------------------|------------------|------------------|------------------|
|------------------|------------------|------------------|------------------|
| |
|------------------|------------------|------------------|------------------|
|------------------|------------------|------------------|------------------|
|------------------|------------------|------------------|------------------|
|------------------|------------------|-8-------8--------|------------------|
|-8-------8--------|-6-------6--------|-6666666666666666-|-4-------6--------|
|-6666666666666666-|-4444444444444444-|------------------|-2-------4--------|
....... ....... ....... ....... ....... .......

NOTE ON CHORUS RIFF: Vibrato all three lead guitars. For every fourth measure
of the chorus, pick the note on the release downwards. Assume stronger octave
harmony is displayed.


Riff F
|-------9-11-13--9--11--8-|---------------11-------|
|--11~--------------------|-11~--11-13-14----13~---|
|*------------------------|------------------------| GUITARS
|*------------------------|------------------------| II & III
|-------------------------|------------------------|
|-------------------------|------------------------|
| |
|-------------------------|------------------------|
|-------------------------|------------------------|
|-------------------------|------------------------| GUITAR I
|-------------6-----------|------------6-----8-----|
|--8----------4-----6-----|-8----------4-----6-----|
|--6----------------4-----|-6----------------------|


|------9-11-13--9--11--8-|-------------------------|
|-11~--------------------|-11~--11-13-14--9-11~----|
|------------------------|------------------------*| GUITARS
|------------------------|------------------------*| II & III
|------------------------|-------------------------|
|------------------------|-------------------------|
| |
|------------------------|-------------------------|
|------------------------|-------------------------|
|------------------------|------------------------*| GUITAR I
|------------6-----------|-3----------------3-----*|
|-8----------4-----6-----|-1----------3-----1--x---|
|-6----------------4-----|------------1--------x---|


Riff G
|-----------------------------|-----------------------------|
|-----------------------------|-----------------------------|
|-----------------------------|-----------------------------| GUITAR I
|-----------------------------|----------------------5------|
|-8-------------8-------------|-8-------------6------3------|
|-6-----6-6-6-6-6-----6-6-6-6-|-6-----6-6-6-6-4-------------|
| . . . . . . . . . . . . . . . . . |
| |
|-6---------------------------|-----------------------------|
|-6---------------------------|-----------7-----------------|
|-6-----10--11--10-----8------|-6--8--10--8---10~-----------| GUITARS
|-8-----11--13--11----10------|-8--10-11------11~-----------| II & III
|-8---------------------------|-----------------------------|
|-6---------------------------|-----------------------------|


|-----------------------------|-----------------------------|
|-----------------------------|-----------------------------|
|-----------------------------|-----------------------------| GUITAR I
|-6-------------6-------------|-5-----6---------------------|
|-4-----4-4-4-4-4-----4-4-4-4-|-3-----4---------------------|
|-----------------------------|-----------------------------|
| . . . . . . . . . . |
| |
|-----------------------------|-----------------------------|
|-----------------------------|-----------------------------|
|-----------------------------|-----------------------------| GUITARS
|-----------------------------|-----------------------------| II & III
|-----------------------------|-----------------------------|
|-----------------------------|-----------------------------|

NOTE: Guitars II and III are acoustic guitars. The Am chord
is stroked slowly, but not too slow. Guitar I is also
heavily palm muted.


Play Riff G a total of 4 times with the following synth flute over it:


|-13----------13----------|-11----13----13----------|
|-------------------------|-------------------------|
|-------------------------|-------------------------|
|-------------------------|-------------------------|
|-------------------------|-------------------------|
|-------------------------|-------------------------|

|-16----------16----------|-------------------------|
|-------------------------|-16----------------------|
|-------------------------|-------------------------|
|-------------------------|-------------------------|
|-------------------------|-------------------------|
|-------------------------|-------------------------|

|-13----------13----------|-9--11-13-14-13----------|
|-------------------------|-------------------------|
|-------------------------|-------------------------|
|-------------------------|-------------------------|
|-------------------------|-------------------------|
|-------------------------|-------------------------|

|-------------13----------|-11----------------------|
|-14----------------------|-------------------------|
|-------------------------|-------------------------|
|-------------------------|-------------------------|
|-------------------------|-------------------------|
|-------------------------|-------------------------|

|-13----------11----------|-------------11----------|
|-11----------------------|-14----------------------|
|-------------------------|-------------------------|
|-------------------------|-------------------------|
|-------------------------|-------------------------|
|-------------------------|-------------------------|

|-13----------16----------|-------------------------|
|-------------------------|-16----------------------|
|-------------------------|-------------------------|
|-------------------------|-------------------------|
|-------------------------|-------------------------|
|-------------------------|-------------------------|

|-13----------------------|-------------------------|
|-11----------------13----|-14----13----11----------|
|-------------------------|-------------------------|
|-------------------------|-------------------------|
|-------------------------|-------------------------|
|-------------------------|-------------------------|

|-------------(13)--------|-11----------------------|
|-(14)--------------------|-------------------------|
|-------------------------|-------------------------|
|-------------------------|-------------------------|
|-------------------------|-------------------------|
|-------------------------|-------------------------|


Riff H
|------------------------|------------------------|------------------------|
|------------------------|------------------------|------------------------|
|*-10--------------------|------------------------|------------------------|
|*-10---10-11-10---------|-8----11----10----------|-10---10-11-10----------|
|--8----8--8--8----11----|-8----8-----8-----------|-8----8--8--8----11-----|
|------------------------|------------------------|------------------------|

______________________ ______________________
| 1. | 2.
|------------------------|------------------------|
|------------------------|------------------------|
|------------8----10----*|------------8-----------|
|-8----10----8----10----*|-8----10----8----11-----|
|-8----8----------8------|-8----8----------8------|
|------------------------|------------------------|


Riff I (GUITAR I plays rhythm from Riff C)
|-------------------------|-------------------------|
|-------------------------|-------9-----------------|
|-10----------10----------|-10---10--10-------------| GUITARS
|-11----------11----------|-11-------11-------------| II & III
|-------------------------|-------------------------|
|-------------------------|-------------------------|

|-------------------------|-------------------------|
|-------------------------|------7---14-13----14-13-|
|-------10-----8----10----|------8---10--8-13-10-8--| GUITARS
|-11----------10----------|-10-------11-10-10-11-10-| II & III
|-------------------------|----------------11-------|
|-------------------------|-------------------------|


Riff J (GUITAR I plays rhythm from Riff C)
|-------------------------|-------------------------|
|-14----------------------|-------------------------|
|-10----------10----------|-10h11--8h10-10----------| GUITARS
|-11----------11----------|-11h13-10h11-11----------| II & III
|-------------------------|-------------------------|
|-------------------------|-------------------------|

|-------------------------|-------------------------|
|-------------------------|-------7-----14-13-------|
|-------10-----8----10----|-------8-----10--8-13----| GUITARS
|-11----------10----------|-10----------11-10-10----| II & III
|-------------------------|-------------------11----|
|-------------------------|-------------------------|


Riff K
|--------1314-16--13~-----|------------------------|
|--14~-----------------14-|-16~---14-16bf+r--16----|
|*------------------------|------------------------| GUITARS
|*------------------------|------------------------| II & III
|-------------------------|------------------------|
|-------------------------|------------------------|
| |
|-------------------------|------------------------|
|-------------------------|------------------------|
|*------------------------|------------------------| GUITAR I
|*-6----------------------|------------------------|
|--4----------4-----------|-6---------4-----6------|
|-------------2-----------|-4---------2-----4------|


|-------------------------|-16~*------------11bf---|
|-14~---1113--14-13-11----|--9----11-13bh----------|
|---------------------10--|-----------------------*| GUITARS
|-------------------------|-----------------------*| II & III
|-------------------------|------------------------|
|-------------------------|------------------------|
| |
|-------------------------|------------------------|
|-------------------------|------------------------|
|-------------------------|-----------------------*| GUITAR I
|-6-----------------------|-----------------------*|
|-4-----------4-----------|-6---------4-----6------|
|-------------2-----------|-4---------2-----4------|

* No 16 on the repeat


Repeat CHORUS RIFF


Riff L
|------------18bf--------|------------------18~---|
|------------16bf+r------|-16~-------14-13--------|
|------------------------|------------------15~---| GUITARS
|-15~--------------------|------------------------| II & III
|------------------------|------------------------|
|------------------------|------------------------|
| |
|------------------------|------------------------|
|------------------------|------------------------|
|------------------------|------------------------| GUITAR I
|------------------------|-8----------------------|
|-8----------------------|-6----------------------|
|-6----------------------|------------------------|


|-13~--------15bh+r------|-15~-------131513-------|
|------------------------|-------------h-p-16-14~-|
|------------------------|-----------------h------| GUITAR
|------------------------|------------------------| II & III
|------------------------|------------------------|
|------------------------|------------------------|
| |
|------------------------|------------------------|
|------------------------|------------------------|
|------------------------|------------------------| GUITAR I
|-8----------------------|-(8)--------------------|
|-6----------------------|-(6)--------------------|
|------------------------|------------------------|


Riff M
|-------13-14-13~---------|-------|-------13-14-13~----------|-------|
|----14-------------14----|-------|----14--------------14----|-------|
|-15-------------------15-|-------|-15--------------------15-|-------|
|-------------------------|-------|--------------------------|-------|
|-------------------------|-------|--------------------------|-------|
|-------------------------|-------|--------------------------|-------|
| |
|-------------------------|-------|--------------------------|-------|
|-------------------------|-------|--------------------------|-------|
|-------------------------|-------|--------------------------|-------|
|-8--8--8--8--8-----8--8--|-------|-8--8--8--8--8------8--8--|-------|
|-8--8--8--8--8-----8--8--|-------|-8--8--8--8--8------8--8--|-------|
|-6--6--6--6--6-----6--6--|-------|-6--6--6--6--6------6--6--|-------|


|-----------------------------|-18~----|-----------------------------|
|-----------------------------|--------|-----------------------------|
|-13-------11-13----11131110-|--------|-13-------11-13----11131110-|
|----13-15------------h-p-----|-13~----|----13-15--------------------|
|-----------------------------|--------|-----------------------------|
|-----------------------------|--------|-----------------------------|
| |
|-----------------------------|--------|-----------------------------|
|-----------------------------|--------|-----------------------------|
|-----------------------------|--------|-----------------------------|
|-----------------------------|--------|-----------------------------|
|-6--------------------------|-4------|-6--------------------------|
|-4--------------------------|-2------|-4--------------------------|


|-----------------13-11-------|
|-16~-------------------14-13-|
|-----------------------------|
|-13~-------------------------|
|-----------------------------|
|-----------------------------|
| |
|-----------------------------|
|-----------------------------|
|-----------------------------|
|-----------------------------|
|-4---------------------------|
|-2---------------------------|


Riff N
|----1311-------------11--------|-----------11-13------1311-----|
|-11------14--13--11-----13-----|-11~-111314---------------1413-|
|----------------------------13-|-------------------------------|
|-------------------------------|-------------------------------|
|-------------------------------|-------------------------------|
|-------------------------------|-------------------------------|
| |
|-------------------------------|-------------------------------|
|-------------------------------|-------------------------------|
|-------------------------------|-------------------------------|
|-8--8-8-8-8--8--8-8-8-8--10-6--|-8--8-8-8-8--8--8-8-8-8--10-6--|
|-8--8-8-8-8--8--8-8-8-8--10-6--|-8--8-8-8-8--8--8-8-8-8--10-6--|
|-6--6-6-6-6--6--6-6-6-6--8--4--|-6--6-6-6-6--6--6-6-6-6--8--4--|


|----1311-------------11--------|--------1613-----13~-----------|
|-11------14--13--11-----13-----|-11~--------1416---------------|
|----------------------------13-|-------------------------------|
|-------------------------------|-------------------------------|
|-------------------------------|-------------------------------|
|-------------------------------|-------------------------------|
| |
|-------------------------------|-------------------------------|
|-------------------------------|-------------------------------|
|-------------------------------|-------------------------------|
|-8--8-8-8-8--8--8-8-8-8--10-6--|-8--8-8-8-8--8--8-8-8-8--10-6--|
|-8--8-8-8-8--8--8-8-8-8--10-6--|-8--8-8-8-8--8--8-8-8-8--10-6--|
|-6--6-6-6-6--6--6-6-6-6--8--4--|-6--6-6-6-6--6--6-6-6-6--8--4--|


|--16~-------16---------h--p----|-16~-------16-18-19--181918----|
|---------17----12-14--121412---|--------17-------------h-p-19--|
|*-13~-------13--------------15-|-----------13--------151715---*|
|*--------14--------------------|--------14-----------------16-*|
|-------------------------------|-------------------------------|
|-------------------------------|-------------------------------|
| |
|-------------------------------|-------------------------------|
|-------------------------------|-------------------------------|
|*------------------------------|------------------------------*|
|*-9--9-9-9-9-9--9-9-9-9-8------|-9--9-9-9-9-9--9-9-9-9-11-----*|
|--7--7-7-7-7-7--7-7-7-7-6------|-7--7-7-7-7-7--7-7-7-7-9-------|
|-------------------------------|-------------------------------|


Riff O
|-----11---------------------------|-----11--------------------------|
|-------14--12--11------11--12--14-|-------14--12--11------14--11----|
|-13----------------13-------------|-13----------------13---------11-| GUITARS
|----------------------------------|---------------------------------| II&III
|----------------------------------|---------------------------------|
|----------------------------------|---------------------------------|
| |
|----------------------------------|---------------------------------|
|----------------------------------|---------------------------------|
|----------------------------------|---------------------------------| GUITAR I
|----------------------------------|---------------------------------|
|-6--------------------------------|-2-------------------------------|
|-4--------------------------------|-0-------------------------------|


|-11--9--11--12--11-9--11----------|-------------11h12h14~-----------|
|-12--11-12--14--12-11-12-11----11-|-12~---12h14-12h14h16~-----------|
|-------------------------11-11-11-|-13~---13h15---------------------| GUITARS
|----------------------------11----|---------------------------------| II&III
|----------------------------------|---------------------------------|
|----------------------------------|---------------------------------|
| |
|----------------------------------|---------------------------------|
|----------------------------------|---------------------------------|
|----------------------------------|---------------------16p14-------| GUITAR V
|----------------------------------|---------------------------16p15-|
|----------------------------------|---------------------------------|
|----------------------------------|---------------------------------|
| |
|----------------------------------|---------------------------------|
|----------------------------------|---------------------------------|
|----------------------------------|---------------------------------| GUITAR I
|-4---------------6----------------|---------------------------------|
|-2---------------4----------------|-6-------------------------------|
|----------------------------------|-4-------------------------------|


|----------------------------------|---------------------------------|
|----------------------------------|---------------------------------|
|-13-------------------16p15-------|---------------------------------| GUITAR V
|----------------------------18p16-|-14------------------------------|
|----------------------------------|---------------------------------|
|----------------------------------|---------------------------------|
| |
|------16--18--18bh~---------------|------16--18--21bf~--------------|
|------12--14--14bf~---------------|------17--19--23bh~--------------|
|----------------------------------|---------------------------------| GUITARS
|----------------------------------|------14--16--16bf~--------------| 2, 3, 4
|----------------------------------|---------------------------------|
|----------------------------------|---------------------------------|
| |
|----------------------------------|---------------------------------|
|----------------------------------|---------------------------------|
|----------------------------------|---------------------------------| GUITAR I
|----------------------------------|---------------------------------|
|-6--------------------------------|-2-------------------------------|
|-4--------------------------------|-0-------------------------------|



|----------------------------------|---------------------------------|
|----------------------------------|---------------------------11h12-|
|----------------------------------|---------------------------------| GUITAR II
|----------------------------------|---------------------------------|
|----------------------------------|---------------------------------|
|----------------------------------|---------------------------------|
| |
|-------------------12-------------|---------------------------------|
|-16-14-12--14--16--14--14--11--14-|-16-14-12--14--11--12~-----------|
|-16-15-13--15--16------15--11--15-|-16-15-12--15--11--13~-----------| GUITARS
|----------------------------------|---------------------------------| III & IV
|----------------------------------|---------------------------------|
|----------------------------------|---------------------------------|
| |
|----------------------------------|---------------------------------|
|----------------------------------|---------------------------------|
|----------------------------------|---------------------------------| GUITAR I
|----------------------------------|---------------------------------|
|-6--------------------------------|-2-------------------------------|
|-4--------------------------------|-0-------------------------------|



|--14-11-----11-14bf+r-|-14~-----------11h12-|-h14-11---------11bh-|
|--------12------------|---------------------|---------12--14------|
|*---------------------|---------------------|---------------------| GUITARS
|*---------------------|---------------------|---------------------| II & III
|----------------------|---------------------|---------------------|
|----------------------|---------------------|---------------------|
| |
|----------------------|---------------------|---------------------|
|----------------------|---------------------|---------------------|
|*---------------------|---------------------|---------------------| GUITAR I
|*---------------------|-2"------------------|---------------------|
|--2"------------------|---------------------|-2"------------------|
|----------------------|---------------------|---------------------|

____________________ ___________________
| 1. | 2.
|-9~------------11h12--|-9~------------------|
|----------------------|---------------------|
|---------------------*|---------------------| GUITARS
|---------------------*|---------------------| II & III
|----------------------|---------------------|
|----------------------|---------------------|
| |
|----------------------|---------------------|
|----------------------|---------------------|
|---------------------*|---------------------| GUITAR I
|---------------------*|---------------------|
|-4----4----4----4-----|-4----4----4----4----|
|-2222-2222-2222-2222--|-2222-2222-2222-2222-|

NOTE: Palm mute rhythm tremolo notes


Riff P
|--16~-------------------|-16~-------------------|
|---9~---12-11-12-9-11-7-|--9~-------------------|
|*-----------------------|-----------------------| GUITARS
|*-----------------------|-----------------------| II & III
|------------------------|-----------------------|
|------------------------|-----------------------|
| |
|------------------------|-----------------------|
|------------------------|-----------------------|
|*-----------------------|-4---------------------| GUITAR I
|*-----------------------|-2-----2222------------|
|--6----------6-------6--|------------6----------|
|--4-----4444-4-----4444-|------------4-----4444-|
.... .. . .... ....

|-----------------------|------------------------|
|-12~-12-14-16-12-14-11-|------------11-12--11~--|
|-----------------------|-11~-----13------------*| GUITARS
|-----------------------|-----------------------*| II & III
|-----------------------|------------------------|
|-----------------------|------------------------|
| |
|-----------------------|------------------------|
|-----------------------|------------------------|
|-----------------------|-----------------------*| GUITAR I
|-4----------4-------4--|-----------------------*|
|-2-----2222-2-----2222-|-4----------4-----------|
|-----------------------|-2----------2-----------|
.... .. .


Riff Q
|------------------------------------|------------------------------------|
|--16-0-0-0-0-0-0-0-16-0-0-0-0-0-0-0-|-14-0-0-16-14-0-0-12-11-0-0-9-7~----|
|*-----------------------------------|------------------------------------|
|*-----------------------------------|------------------------------------|
|------------------------------------|------------------------------------|
|------------------------------------|------------------------------------|
| |
|------------------------------------|------------------------------------|
|------------------------------------|------------------------------------|
|*-----------------------------------|------------------------------------|
|*-----------------------------------|------------------------------------|
|--8----------------2----------------|-8-------------------2--------4-----|
|--6----------------0----------------|-6-------------------0--------2-----|


|------------------------------------|------------------------------------|
|-16-0-0-0-0-0-0-0-16-0-0-0-0-0-0-0--|-14-0-0-16-14-0-0-12-11-0-0-9-14~---|
|------------------------------------|-----------------------------------*|
|------------------------------------|-----------------------------------*|
|------------------------------------|------------------------------------|
|------------------------------------|------------------------------------|
| |
|------------------------------------|------------------------------------|
|------------------------------------|------------------------------------|
|------------------------------------|-----------------------------------*|
|------------------------------------|-----------------------------------*|
|-8----------------2-----------------|-4-------------------2--------------|
|-6----------------0-----------------|-2-------------------0--------------|


Repeat Riff K
Repeat Chorus Riff


Riff R
|------------------------|-----------------------|
|------------------------|------------14~--------|
|*-10---10h11p10-13--10--|-11~-------------------| GUITARS
|*-----------------------|------------11~--------| II & III
|------------------------|-----------------------|
|------------------------|-----------------------|
| |
|------------------------|-----------------------|
|------------------------|-----------------------|
|*-----------------------|-----------------------| GUITAR I
|*-----------------------|-----------------------|
|--8---------8----8------|-4----------4----4-----|
|--6----6666-6----6------|-2-----2222-2----2-----|
. .... . . .... .

|---------------16bf-----|-----------------------|
|------------------------|-----------------------|
|-10---10h11p10-13bf-----|------10h11-----------*| GUITARS
|------------------------|-11h13------13~-------*| II & III
|------------------------|-----------------------|
|------------------------|-----------------------|
| |
|------------------------|-----------------------|
|------------------------|-----------------------|
|------------------------|----------------------*| GUITAR I
|------------------------|----------------------*|
|-8---------8----8-------|-6----------6----------|
|-6----6666-6----6-------|-4-----4444-4----------|
. .... . . ....

NOTE : Harmonize last measure of Riff R with octave higher


OUTRO Riff
|-------------------|-------------------|-------------------|
|-11--11-11-11------|-14~------11~------|-11--11-11-11------|
|-10--10-11-10--13--|-------------------|-10--10-11-10-13---| GUITARS
|---------------13--|-11~---------------|--------------13---| II & III
|-------------------|----------13~------|-------------------|
|-------------------|-------------------|-------------------|
| |
|-------------------|-------------------|-------------------|
|-------------------|-------------------|-------------------|
|-------------------|-------------------|-------------------| GUITAR I
|-------------------|-------------------|-------------------|
|-8--------8--------|-4--------4--------|-8--------8--------|
|-6--------6--------|-2--------2--------|-6--------6--------|


|-------------------|-------------------|-------------------|
|------11h13--------|-11--11-11-11------|-14~------11~------|
|-10h1310h11--------|-10--10-11-10-13---|-------------------| GUITARS
|-11h13-----13~-----|--------------13---|-11~---------------| II & III
|-----------13~-----|-------------------|----------13~------|
|-------------------|-------------------|-------------------|
| |
|-------------------|-------------------|-------------------|
|-------------------|-------------------|-------------------|
|-------------------|-------------------|-------------------| GUITAR I
|-------------------|-------------------|-------------------|
|-6--------6--------|-8--------8--------|-4--------4--------|
|-4--------4--------|-6--------6--------|-2--------2--------|


|---------|---------|-------------------|-------------------|
|-(11)----|-(11)----|-11--11-13-11------|-14-16-13-14-14~---|
|---------|---------|-10--10-11-10--13--|-15-17-13----15~---| GUITARS
|---------|---------|---------------13--|-------------------| II & III
|-(13)----|-(13)----|-------------------|-------------------|
|---------|---------|-------------------|-------------------|
| |
|---------|---------|-------------------|-------------------|
|---------|---------|-------------------|-------------------|
|---------|---------|-------------------|-------------------| GUITAR I
|---------|---------|-------------------|-------------------|
|-(4)-----|-(4)-----|-------------------|-------------------|
|-(2)-----|-(2)-----|-------------------|-------------------|


NOTE : Guitars II and III are both harmonized with an octave
higher harmony throughout the outro riff. Assuming
guitar III on bottom, its octave harmony seems to
ring through clearer.


Check Out My Web Page For More Transcriptions at:

-----------------------------
|  , ,   |
|     http://akords.org     |
-----------------------------

 (: 0)
    :
  • Are You Ready
  • Whats My Age Again
  • I Hope You Die
  • Obvious
  • War Pigs
  •  
    , . '.

    ':*
    E-Mail:*
    :
    , : *
     
      

    BLIBL-