|  
 
:  
  : :  
      ?    

  |

akords.org » B » Blind Guardian » Mirror Mirror

Blind Guardian - Mirror Mirror 

Blind Guardian
"Mirror Mirror"
Transcribed By : Angelo Veto (6/24/00)
This is one of my very first tabs I have made but I am pretty capable of
writing them. If you have any questions or corrections on any part of the
tab feel free to e-mail me at motzimo@stratos.net." Enjoy!

Version 1.0 - I foolishly left out the intro of the rhythm (horribly) and
I messed up rather on the lead solo.
Version 1.5 - I fixed the errors, and besides a few extrememly hard things
to hear, this tab is near flawless.


Intro: Rhythm 4x (:20 sec.)
E---||-------------------r----------||--||---------r------------------
B---||-------------------e----------||--||---------e------------------
G---||*------------------s---------*||--||*--------s-----------5------
D---||*--7--5--7--9--10--t--9--10--*||--||*--7--7--t--5--7-----5------
A---||---7--5--7--9--10-----9--10---||--||---7--7-----5--7-----3------
E---||---5--3--5--7--8------7--8----||--||---5--5-----3--5------------


2x (:31sec)
E-------------||------------------------------------------------------
B-------------||------------------------------------------------------
G---5--------*||-----2--------------------2--------------------2------
D---5--5--5--*||-----2--------------------2--------------------2------
A---3--5--5---||-----0--0--0--0--0--0--0--0--0--0--0--0--0--0--0------
E------3--3---||------------------------------------------------------



E---------------------------------------------------------------------
B---------------------------------------------------------------------
G---------------------2--------------------5--------------------5-----
D---------------------2--------------------5--------------------5-----
A---0--0--0--0--0--0--0--0--0--0--0--0--0--3--3--3--3--3--3--3--3-----
E---------------------------------------------------------------------



E---------------------------------------------------------------------
B---------------------------------------------------------------------
G---------------------------------------------------------------2-----
D---------------------5--------------------3--------------------2-----
A---3--3--3--3--3--3--5--------------------3--------------------0-----
E---------------------3--3--3--3--3--3--3--1--1--1--1--1--1--1--------



E---------------------------------------------------------------------
B---------------------------------------------------------------------
G---------------------2--------------------2--------------------2-----
D---------------------2--------------------2--------------------2-----
A---0--0--0--0--0--0--0--0--0--0--0--0--0--0--0--0--0--0--0--0--0-----
E---------------------------------------------------------------------



E---------------------------------------------------------------------
B---------------------------------------------------------------------
G---------------------5--------------------5--------------------------
D---------------------5--------------------5--------------------5-----
A---0--0--0--0--0--0--3--3--3--3--3--3--3--3--3--3--3--3--3--3--5-----
E---------------------------------------------------------------3-----


(:42sec)
E------------------------------------------|--------------------------
B------------------------------------------|--------------------------
G------------------------------------------|--------------------------
D---------------------3--------------------|--7-----------------------
A---------------------3--------------------|--7-----------------------
E---3--3--3--3--3--3--1--1--1--1--1--1--1--|--5--5--5--5--5--5--5-----



E---------------------------------------------------------------------
B---------------------------------------------------------------------
G--------------------------------------------------------5------------
D---7--5--------3-7--------------------------------------5------------
A---7--5--------3-7--------------------------------------3--3--3------
E---5--3--3--3--1/5--5--5--5--5--5--5--5--5--5--5--5--5---------------



E---------------------------------------------------------------------
B---------------------------------------------------------------------
G---------------5-----------5-----------------------------------------
D---------------5-----------5--5-----7--------------------7--5--------
A---3--3--3--3--3--3--3--3--3--5-----7--------------------7--5--------
E------------------------------3-----5--5--5--5--5--5--5--5--3--3-----



E---------------------------------------------------------------------
B---------------------------------------------------------------------
G-----------------------------------------------5---------------------
D------3-7--------------------------------------5---------------------
A------3-7--------------------------------------3--3--3--3--3--3------
E---3--1/5--5--5--5--5--5--5--5--5--5--5--5--5------------------------


(:53sec)
E------------------------||-------------------------------------------
B------------------------||-------------------------------------------
G------5-----------5-----||*--------------------------5---------------
D------5-----------5--5--||*--7-----------7-----------5--5--7---------
A---3--3--3--3--3--3--5--||---7-----------7-----------3--5--7---------
E---------------------3--||---5--5--5--5--5--5--5--5-----3--5---------


2x
E----------------------------------------------------||--||-----------
B----------------------------------------------------||--||-----------
G---5-----------5-----------------------------------*||--||*----------
D---5-----------5-----------5-----------3-----------*||--||*----------
A---3--3--3--3--3--3--3--3--5-----------3------------||--||-----------
E---------------------------3--3--3--3--1--1--1--1---||--||-----------


chorus(1:04sec)
E---------------------------------------------------------------------
B---------------------------------------------------------------------
G---------------------------------------------------------------------
D---7--------------------7--------------------5-----------------------
A---7--------------------7--------------------5-----------------------
E---5--5--5--5--5--5--5--5--5--5--5--5--5--5--3--3--3--3--3--3--3-----
Mirror mirror on the wall . . .


E---------------------------------------------------------------------
B---------------------------------------------------------------------
G------------------------7--------------------7-----------------------
D---5--------------------7--------------------7-----------------------
A---5--------------------5--5--5--5--5--5--5--5--5--5--5--5--5--5-----
E---3--3--3--3--3--3--3-----------------------------------------------


4x (1:26sec)
E----------------------------------------------||--||-----------------
B----------------------------------------------||--||-----------------
G---------------------------------------------*||--||*--------5-------
D---3--------------------5--------------------*||--||*--7-----5--5----
A---3--------------------5---------------------||--||---7-----3--5----
E---1--1--1--1--1--1--1--3--3--3--3--3--3--3---||--||---5--------3----


4x (1:36sec)
E----------------||--||-----------------------------------------------
B----------------||--||-----------------------------------------------
G---------5-----*||--||*--6-----------6-----------6-------------------
D---7-----5--7--*||--||*--7-----------7-----------7-----------5-------
A---7-----3--7---||--||---7-----------7-----------7-----------5-------
E---5--------5---||--||---5--5--5--5--5--5--5--5--5--5--5--5--3--3----


4x (1:58sec)
E-------------------------------------||------------------------------
B-------------------------------------||------------------------------
G---4--5-----------5-----------5--5--*||------------------------------
D---4--5-----------5-----------5--5--*||--9-----5--7--9-----9---------
A---2--3--3--3--3--3--3--3--3--2--3---||--9-----5--7--9-----9---------
E-------------------------------------||--7-----3--5--7-----7--x------



E------------------------------------------------------------|--------
B------------------------------------------------------------|--------
G---------------7-----------------------------------------7--|--------
D---9-----5--7--7-----9-----5--7--9-----9-----9-----5--7--7--|--------
A---9-----5--7--5-----9-----5--7--9-----9-----9-----5--7--5--|--------
E---7-----3--5--------7-----3--5--7-----7--x--7-----3--5-----|--------


verse 1(2:09sec) (2:19sec) 4x
E------------------------||----------------------------||-------------
B------------------------||----------------------------||-------------
G------------------------||*--5--------------------5--*||-------------
D------------------------||*--5-----3-----5-----3--5--*||-------------
A------------------------||---3-----3-----5-----3--3---||-------------
E------------------------||---------1-----3-----1------||-------------


chorus(2:31sec) After Solo-(3:45sec)
E------------------------||-------------------------------------------
B------------------------||-------------------------------------------
G------------------------||*--------------------------------8---------
D------------------------||*-----5--------5--------5--------8---------
A------------------------||------5--------5--------5--------6--6------
E------------------------||------3--3--3--3--3--3--3--3--3------------



E---------------------------------------------------------------------
B---------------------------------------------------------------------
G------------------------------3--------3-----3-----------------------
D------5--------5--------5--5--3--------3-----3--3--------------------
A---6--5--------5--------5--5--1--1--1--1--1--1--3--------------------
E------3--3--3--3--3--3--3--3--------------------1--1--1--1--1--1-----


2x (3:57sec)
E-------||--||--------------------------------------------------------
B-------||--||--------------------------------------------------------
G------*||--||*--4-----------------------4-----------------------5----
D------*||--||*--4-----2-----4--2--4-----4-----2-----4--2--4-----5----
A-------||--||---2-----2-----4--2--4-----2-----2-----4--2--4-----3----
E---1---||--||---------0-----2--0--2-----------0-----2--0--2----------


chorus(4:18sec)
E---------------------------------------------|-----------------------
B---------------------------------------------|-----------------------
G------------------------5--------------------|-----------------------
D------3-----5--3--5-----5-----3-----5--3--5--|-----------------------
A------3-----5--3--5-----3-----3-----5--3--5--|-----------------------
E------1-----3--1--3-----------1-----3--1--3--|-----------------------


outro (4:39sec)
E------|--------------------------------------------------------------
B------|-------------------------------------------------------10-----
G------|--9--9h10p9--12--9-----10~~~------------9--9h10p9--12---------
D------|------------------------------10~~~---------------------------
A------|--------------------------------------------------------------
E------|--------------------------------------------------------------



E---------------------------------------------------------------------
B---------------------------------------------------------------------
G----------9--10---------9--9h10p9--12--9-----10~~~------------9------
D---10h12---------12---------------------------------10~~~------------
A---------------------------------------------------------------------
E---------------------------------------------------------------------



E---------------------------------------------------------------------
B---------------10----------------------------------------------------
G---9h10p9--12-------------9--10---------9--9--10--9------------------
D-------------------10h12---------12------------------12--10~~~-------
A---------------------------------------------------------------------
E---------------------------------------------------------------------



E---------------------------------------------------------------------
B---------------------------------------------------------------------
G-------------9--9--10--9----------------9--10---------9--9--10--9----
D--------------------------12-----10h12---------12--------------------
A---12~~~-------------------------------------------------------------
E---------------------------------------------------------------------



E---------------------------------------------------------------------
B---------------------------------------------------------------------
G------------------------------9--9--10--9----------------------------
D---12-----10~~~----------------------------12-----10h12--9h10--------
A-----------------12~~~~~~--------------------------------------------
E---------------------------------------------------------------------



E------------||-------------------------------------------------------
B------------||-------------------------------------------------------
G------------||-------------------------------------------------------
D---7~~~-----||-------------------------------------------------------
A------------||-------------------------------------------------------
E------------||-------------------------------------------------------


Now here is the second guitar. I will also add the harmony that
they sometimes use right next to a second guitar riff.

Intro(:10sec)
E------------------------|--------------------------------------------
B------------------------|-------------------------5~~~---------------
G------------------------|--0/5--5~~~--4~~~--5~~~--------4~~~/9--9----
D------------------------|--------------------------------------------
A------------------------|--------------------------------------------
E------------------------|--------------------------------------------



E---------------------------------------------------------------------
B-------------------------------------------5~~~----------------------
G---~~~--7--9-----0/5-----5~~~--4~~~--5~~~--------4~~~/9--9~~~--7-----
D---------------------------------------------------------------------
A---------------------------------------------------------------------
E---------------------------------------------------------------------


Harmony(:10sec)
E------|--------------------------------------------------------------
B------|--------------------------------------------------------------
G---9--|-------------------------5~~~---------------------------------
D------|--0/7--7~~~--5~~~--7~~~--------5~~~--10~~~--9--10-----0/7-----
A------|--------------------------------------------------------------
E------|--------------------------------------------------------------


(:20sec)
E-----------------------------------------------|---------------------
B-----------------------------------------------|---------------------
G---------------------5~~~----------------------|/9--9--12--11h12-----
D---7~~~--5~~~--7~~~--------5~~~--10~~~--9--10--|---------------------
A-----------------------------------------------|---------------------
E-----------------------------------------------|---------------------



E---------------------------------------------------------------------
B---------------------------------------------------------------------
G---p11------11--9~~~-----9--7---------7--------------/9--9--12-------
D--------12----------/10--------10--9-----10--9-----------------------
A------------------------------------------------10-------------------
E---------------------------------------------------------------------



E---------------------------------------------------------|-----------
B---------------------------------------------------------|-----------
G---11h12p11------11--9~~~-----9--7---------7-------------|-----------
D-------------12----------/10--------10--9-----10--9------|-----------
A-----------------------------------------------------10--|-----------
E---------------------------------------------------------|-----------


Harmony(:26sec)
E----------------------------------------------------------------|----
B----------------------------------------------------------------|----
G----------------------------------------------------------------|----
D---/7--7--10--9h10p9------9--7~~~----7--5--------5--------------|----
A----------------------10---------/8--------8--7-----8--7--5~~~--|----
E----------------------------------------------------------------|----


(:42sec)
E---------------------------------------------------------------------
B---------------------------------------------------------------------
G---------------------------------------------------------------------
D---7-----10p9--10~~~------7~~~-----10--10h12h14--10--12--------------
A----------------------10---------------------------------14--10------
E---------------------------------------------------------------------



E---------------------------------------------------------------------
B---------------------------------------------------------------------
G---------------------------------------------------------------------
D----------9--10--9-----7-----7h9h10--7--9------7-----10-----10h12----
A------10-----------------------------------10------------------------
E---------------------------------------------------------------------


(:53sec)
E-----------------------------------------|---------------------------
B-----------------------------------------|---------------------------
G-----------------------------------------|--9--9--12--11h12p11-------
D---h14--10--12-----------------9--10--9--|---------------------------
A----------------14--10-----10------------|---------------------------
E-----------------------------------------|---------------------------



E---------------------------------------------------------------------
B---------------------------------------------------------------------
G-------11--9~~~------9--7---------7----------------9--9-----12-------
D---12------------10--------10--9-----10--9---------------------------
A--------------------------------------------10-----------------------
E---------------------------------------------------------------------



E----------------------------------------------------------|--||------
B----------------------------------------------------------|--||------
G---11h12p11------11--9~~~------9--7---------7-------------|--||*-----
D-------------12------------10--------10--9-----10--9------|--||*-----
A------------------------------------------------------10--|--||------
E----------------------------------------------------------|--||------


chorus(1:04sec) 4x (1:25sec)
E---------------------------------||--||------------------------------
B---8^--8~~~--18--17^--17~~~------||--||------------------------------
G--------------------------------*||--||*----------9------7-----------
D--------------------------------*||--||*--7--7h9-----10-----9--7-----
A---------------------------------||--||------------------------------
E---------------------------------||--||------------------------------
Mirror, mirror on the wall . . .


E---------------------------------------------------------------------
B---------------------------------------------------------------------
G--------------9----------------9------7------------------------------
D------7h9h10-----9--7~~~--7h9-----10-----9--7-----7h9h10--5--7-------
A---------------------------------------------------------------------
E---------------------------------------------------------------------


2x (1:36)-Acoustic(Violin??)
E----||--||-----------------------------------------------------------
B----||--||-------17--15--17-------------17--15--17-------------------
G---*||--||*--14--------------14-----14--------------------14---------
D---*||--||*----------------------------------------------------------
A----||--||-----------------------------------------------------------
E----||--||-----------------------------------------------------------


slow swell
E---------------------------------------------------------------------
B---17------~~~--15---------17--15--17--15---------17--15--17---------
G-----------------------14---------------------14---------------------
D---------------------------------------------------------------------
A---------------------------------------------------------------------
E---------------------------------------------------------------------


slow swe2x prechorus(2:19sec)
E----------------------||---------------------------------------------
B-------17---~~~--15---||---------------------------------------------
G---14----------------*||---------9h10h12--9--10----------------------
D---------------------*||--10---------------------10--12-----10-------
A----------------------||---------------------------------------------
E----------------------||---------------------------------------------



E---------------------------------------------------------------------
B---------------------------------------------------------------------
G---------------------------------------------------------------7-----
D---12--14--14p12p10-----10-----7h9h10--9--7---------------7/9--------
A---------------------------------------------8--10-----8-------------
E---------------------------------------------------------------------



E---------------------------------------------------------------------
B---------------------------------------------------------------------
G---/9---------9h10h12--9--10-----------------------------------------
D----------10------------------10--12-----10--12--14--14p12p10--------
A---------------------------------------------------------------------
E---------------------------------------------------------------------


Chorus(2:30sec)
E-----------------------------------------------|---------------------
B-----------------------------------------------|---------------------
G------------------------------------------7/9--|---------------------
D---10-----7h9h10--9--7---------------7/9-------|---------------------
A------------------------8--10-----8------------|---------------------
E-----------------------------------------------|---------------------


(2:52sec)
E------------|--------------------------------------------------------
B------------|-----3^--3--------------5--7^--7--5h7p5--3--------3-----
G------------|--2---------5--4--2----------------------------2--------
D------------|--------------------------------------------------------
A------------|--------------------------------------------------------
E------------|--------------------------------------------------------


(3:02sec)
E-----------------------------------------|---------------------------
B---^--3--------------5--7^--7--5h7p5--3--|---------------------------
G---------5--4--2-------------------------|---------------------------
D-----------------------------------------|----------14--15--14-------
A-----------------------------------------|--12--15-------------------
E-----------------------------------------|---------------------------


synth(3:04sec) (3:05sec)
E-----------|------------------------------|--------------------------
B-----------|----------17--18--17----------|--------------------------
G-----------|--14--17--------------17--14--|--------------------------
D-----------|------------------------------|----------14--15--14------
A---15--12--|------------------------------|--12--15------------------
E-----------|------------------------------|--------------------------


synth(3:07sec) Solo(3:08)
E-----------|------------------------------|--------------------------
B-----------|----------17--18--17----------|--------------------------
G-----------|--14--17--------------17--14--|--12--------------12------
D-----------|------------------------------|------12--14--15----------
A---15--12--|------------------------------|--------------------------
E-----------|------------------------------|--------------------------



E---------------------------------------------------------|-----------
B---------------------------------------------------------|-----------
G--------------------12--------------12-------------------|-----------
D---14h15p14--12~~~------12--14--15------14h15p14--12~~~--|-----------
A---------------------------------------------------------|-----------
E---------------------------------------------------------|-----------


(3:13sec)
E---------------------------------------------------------------------
B---------------------------------------------------------------------
G---------------------------------------------------------------------
D---14p12p10----------14p12p10----------10--9-----------------9h10----
A-------------14--12------------14--12---------10-----12--12----------
E---------------------------------------------------------------------



E---------------------------------------------------------------------
B---------------------------------------------------------------------
G-------9----------------------------------------------------12-------
D---12-----14p12p10----------14p12p10----------10--9-------------9----
A--------------------14--12------------14--12---------10--------------
E---------------------------------------------------------------------


(3:19sec)
E----------------|----------------------------------------------------
B----------------|----------------------------------------------------
G-------------9--|--12------12--15--17--15h17h15--14------12----------
D---h9h10h12-----|------13----------------------------15------13------
A----------------|----------------------------------------------------
E----------------|----------------------------------------------------



E---------------------------------------------------------------------
B---------------------------------------------------------------------
G---12--14--15--14h15p14------12------12--15--17--15h17p15--14--------
D-------------------------15------13----------------------------15----
A---------------------------------------------------------------------
E---------------------------------------------------------------------



E---------------------------------------------------------------------
B--------------------------------------------15p13--------------------
G---12------12--14--15--14h15p14---------12---------15--14--12--14----
D-------13------------------------15----------------------------------
A---------------------------------------------------------------------
E---------------------------------------------------------------------



E---------------------------------------------------------------------
B-------13---------15p13--------------13------------------------------
G---15---------12---------15--14--12------14---------15p14--15--17----
D---------------------------------------------15----------------------
A---------------------------------------------------------------------
E---------------------------------------------------------------------


(3:29sec)
E--------------------------------------------------|------------------
B----------------------------------------13h15~~~--|------------------
G---15p14--15--14----------12--12h14h15------------|--12-----12-------
D------------------15--15--------------------------|------------------
A--------------------------------------------------|------------------
E--------------------------------------------------|------------------



E---------------------------------------------------------------------
B---------------------------------------------------------13----------
G---14--14^----------------------------15p14------14--15------14------
D---------------13-----13--15--15^------------15----------------------
A---------------------------------------------------------------------
E---------------------------------------------------------------------


|----3-----| (3:35sec)
E-----------------------------------|---------------------------------
B-----------------------------------|---------------------------------
G-----------14--14--15--14------12--|--8h9h10--------------10--12-----
D---15--15------------------15------|----------12------12-------------
A-----------------------------------|--------------13-----------------
E-----------------------------------|---------------------------------



E---------------------------------------------------------------------
B---------------------------------------------------------------------
G---10~~~-----8h9h10---------------------------8h9h10----------------
D----------------------12------12--12/1410-------------12------12----
A--------------------------13-------------------------------13--------
E---------------------------------------------------------------------


End of Solo
E--------------------------------------------------|--||--------------
B--------------------------------------------------|--||--------------
G---10--1210~~~-----8h9h10------------------------|--||*-------------
D----------------------------12------12--12/1410--|--||*-------------
A--------------------------------13----------------|--||--------------
E--------------------------------------------------|--||--------------


(3:45sec)
E---------------------------------------------------------------------
B---------------------------------------------------------------------
G---------------------------------------------------------------------
D---5-----8p7h8--5--7-----5--------8--8h10h12--8--10------------------
A----------------------8------------------------------12--8-----8-----
E---------------------------------------------------------------------


2x (3:56sec)
E-------------||------------------------------------------------------
B-------------||------------------------------------------------------
G------------*||-----------------------------7------------------------
D---7--8--7--*||--7-----8--8--8--8--8--8-----------8--8--8--8--8------
A-------------||------------------------------------------------------
E-------------||------------------------------------------------------



E---------------------------------------------------------------------
B---------------------------------------------------------------------
G------------------------------------------------------------7--------
D---8-----10h12p10--8----------------7-----8--8--8--8--8--8-----8-----
A----------------------12--10--8--------------------------------------
E---------------------------------------------------------------------


prechorus(4:08sec)
E--------------------------------------|------------------------------
B--------------------------------------|------------------------------
G--------------------------------------|------------------------------
D---8--8--8--8--8-----10h12p10--8------|------------------------------
A----------------------------------12--|------------------------------
E--------------------------------------|------------------------------


chorus(4:18sec)
E---|--------------------------|--------------------------------------
B---|--------------------------|--------------------------------------
G---|--------------------------|--------------------------------------
D---|--------------------------|--------------------------------------
A---|--------------------------|--------------------------------------
E---|--------------------------|--------------------------------------


outro(4:39sec)- with rhythm guitar
E---12--12h13p12--15--12--13~~~---------12--12h13p12--15/17-----------
B--------------------------------13~~~-----------------------13h15----
G---------------------------------------------------------------------
D---------------------------------------------------------------------
A---------------------------------------------------------------------
E---------------------------------------------------------------------



E---12h13---------12--12h13p12--15--12--13~~~---------12--12h13p12----
B----------15----------------------------------13~~~------------------
G---------------------------------------------------------------------
D---------------------------------------------------------------------
A---------------------------------------------------------------------
E---------------------------------------------------------------------



E---15/17---------12h13------------12--12--13--12---------------------
B----------13h15---------15~~~---------------------15--13~~~----------
G-------------------------------------------------------------14------
D---------------------------------------------------------------------
A---------------------------------------------------------------------
E---------------------------------------------------------------------



E-----------12--12--13--12----------------12h13------------12--12-----
B---------------------------15-----13h15---------15~~~----------------
G---~~~---------------------------------------------------------------
D---------------------------------------------------------------------
A---------------------------------------------------------------------
E---------------------------------------------------------------------



E---13--12--------------------------12--12--13--12------20h22--19-----
B-----------15--13~~~-------------------------------15----------------
G----------------------14~~~~~~---------------------------------------
D---------------------------------------------------------------------
A---------------------------------------------------------------------
E---------------------------------------------------------------------



E---h20--17--|------------------------------------------------------
B--------------|------------------------------------------------------
G--------------|------------------------------------------------------
D--------------|------------------------------------------------------
A--------------|------------------------------------------------------
E--------------|------------------------------------------------------


Sothat's about it for this song. This tab would be too complicated
if I were to list the rhythm to every note
so instead I tabbed when each little riff comes in. It would be
best if you listened to the CD for most of the riffs. You will
also notice for the rhythm guitar section
that I didn't put in the Palm Mutes
this is because it would take just too long
almost the whole thing is palm muted. I hope you enjoyed this tab
it took me a really long time.

(^) __ .
/_ | _ |
~~ | : n|__| E |__ O~~~



======================================================================
== TABLATURE EXPLANATION ==
======================================================================

---------- ---------- ----t---
----5h8--- Hammeron ----(8)--- Ghost ----6--- Tap
---------- ---------- Note --------
----5p8--- Pulloff ---------- --------

---------- ---------- -----p--
----5/8--- Slide Up -----x---- Dead -----7-- Pop
---------- ---------- Note --s-----
----58--- Slide Down ---------- --5----- Slap

---------- ||------|| Repeat --------
----5~~~-- Vibrato ||*----*|| ---5^--- Bend
---------- ||*----*|| --------
---------- ||------|| --------

---------- ---------- --------
-4:------- Time ---------- --------
-4:------- Signature ---------- --------
---------- ---------- --------

Rhythm:
w = whole note W = dotted whole
h = half note H = dotted half
q = quarter note Q = dotted quarter
e = eighth note E = dotted eighth
s = sixteenth note S = dotted sixteenth
t = 32nd note T = dotted 32nd
x = 64th note X = dotted 64th
^ = triplet

======================================================================
== Created with a demo version of BUCKET O' TAB ==
== tablature creation software for Windows ==
== For more info email gse@his.com ==
======================================================================

-----------------------------
|  , ,   |
|     http://akords.org     |
-----------------------------

 (: 0)
    :
  • The Bards Song The Hobbit
  • Mirror Mirror
  • And Then There Was Silence
  • Mirror Mirror
  • Nightfall
  •  
    , . '.

    ':*
    E-Mail:*
    :
    , : *
     
      

    BLIBL-