|  
 
:  
  : :  
      ?    

  |

akords.org » B » Blind Guardian » Majesty

Blind Guardian - Majesty 2

#----------------------------------PLEASE NOTE---------------------------------#
#This file is the author's own work and represents their interpretation of the #
#song. You may only use this file for private study, scholarship, or research. #
#------------------------------------------------------------------------------#

MAJESTY
As recorded by Blind Guardian
(From the 1988 Album BATTALIONS OF FEAR)


Transcribed by Drimascus_God_Of_Thunder

Words and Music by Andre Olbrich



Gtr I (E A D G B E) - 'Untitled'
Gtr II (E A D G B E) - 'Untitled'
Gtr III (E A D G B E) - 'Marcus'
Gtr IV (E A D G B E) - 'Andr'


Intro
Q=200
C C C C
3/4
Gtr I
Q q q Q q q Q q q Q q q
|--------------|--------------|--------------|-------------|
|------13--13--|------13--13--|------13--13--|-----13--13--|
|------12--12--|------12--12--|------12--12--|-----12--12--|
|------14--14--|------14--14--|------14--14--|-----14--14--|
|-15-----------|-15-----------|-15-----------|-15----------|
|--------------|--------------|--------------|-------------|
|
| Gtr II
| H. H. H. H Q
|--------------|--------------|--------------|-------------|
|--------------|--------------|--------------|---------13--|
|--------------|--------------|--------------|-------------|
|--------------|--------------|--------------|-------------|
|--------------|--------------|--------------|-------------|
|--------------|--------------|--------------|-------------|


C C C C C
Q q q Q q q Q q q Q q q Q q q
|-------------|-------------|-------------|-------------|--------------|
|-----13--13--|-----13--13--|-----13--13--|-----13--13--|-----13--13---|
|-----12--12--|-----12--12--|-----12--12--|-----12--12--|-----12--12---|
|-----14--14--|-----14--14--|-----14--14--|-----14--14--|-----14--14---|
|-15----------|-15----------|-15----------|-15----------|-15-----------|
|-------------|-------------|-------------|-------------|--------------|
|
| Q Q Q H Q H Q H Q Q Q Q
|-----12--15--|-15------15--|-15------12--|-12----------|-----12--15---|
|-13----------|-------------|-------------|---------13--|-13-----------|
|-------------|-------------|-------------|-------------|--------------|
|-------------|-------------|-------------|-------------|--------------|
|-------------|-------------|-------------|-------------|--------------|
|-------------|-------------|-------------|-------------|--------------|


Dm Dm Dm Dm C
Q q q Q q q Q q q Q q q Q q q
|-------------|-------------|-------------|-------------|--------------|
|-----15--15--|-----15--15--|-----15--15--|-----15--15--|-----13--13---|
|-----14--14--|-----14--14--|-----14--14--|-----14--14--|-----12--12---|
|-----15--15--|-----15--15--|-----15--15--|-----15--15--|-----14--14---|
|-17----------|-17----------|-17----------|-17----------|-15-----------|
|-------------|-------------|-------------|-------------|--------------|
|
| H Q H Q H Q Q Q Q H Q
|-17------17--|-17------13--|-13----------|-----13--17--|-15------15---|
|-------------|-------------|---------15--|-15----------|--------------|
|-------------|-------------|-------------|-------------|--------------|
|-------------|-------------|-------------|-------------|--------------|
|-------------|-------------|-------------|-------------|--------------|
|-------------|-------------|-------------|-------------|--------------|


C C C Dm Dm
Q q q Q q q Q q q Q q q Q q Q
|-------------|-------------|-------------|-------------|-------------|
|-----13--13--|-----13--13--|-----13--13--|-----15--15--|-----15------|
|-----12--12--|-----12--12--|-----12--12--|-----14--14--|-----14------|
|-----14--14--|-----14--14--|-----14--14--|-----15--15--|-----15------|
|-15----------|-15----------|-15----------|-17----------|-17----------|
|-------------|-------------|-------------|-------------|-------------|
|
| H Q H Q Q Q Q H Q H Q
|-15------12--|-12----------|-----12--15--|-17------17--|-17----------|
|-------------|---------13--|-13----------|-------------|-------------|
|-------------|-------------|-------------|-------------|-------------|
|-------------|-------------|-------------|-------------|-------------|
|-------------|-------------|-------------|-------------|-------------|
|-------------|-------------|-------------|-------------|-------------|


Intro2
Q=160
F#5 F#5
4/4
Gtr III Gtrs III, IV
Wx2 E E S E S E S S +E E E E S E S E S S +E E
|------------|----------------------------|----------------------------|
|------------|----------------------------|----------------------------|
|------------|----------------------------|----------------------------|
|------------|---11-----------------------|---11-----------------------|
|------------|-9----9-11-9-12-9---------9-|-9----9-11-9-12-9---------9-|
|------------|------------------12-(12)---|------------------12-(12)---|


F#5 F#5
E E S E S E S S +E E E E S E S E S S +E E
|----------------------------|----------------------------|
|----------------------------|----------------------------|
|----------------------------|----------------------------|
|---11-----------------------|---11-----------------------|
|-9----9-11-9-12-9---------9-|-9----9-11-9-12-9---------9-|
|------------------12-(12)---|------------------12-(12)---|


F#5 F#5
E E S E S E S S +E E E E S E S E S S +E E
|----------------------------|------------------------------|
|----------------------------|------------------------------|
|----------------------------|------------------------------|
|---11-----------------------|---11-------------------------|
|-9----9-11-9-12-9---------9-|-9----9-11-9-12-9---------9---|
|------------------12-(12)---|------------------12-(12)-----|


1.,2.,3. 4.
C#5 C#D5 C#E5D5C#D5 C#D5 C#E5D5C#E5
E S S S S S S S S S S S S S S E Q E E E E E 4x E Q E E E E E
||--------------------------------|-----------------||----------------|
||o-------------------------------|----------------o||----------------|
||--6-----------------------------|-6-7--6-9-7-6-7--||-6-7--6-9-7-6-9-|
||--6-----------------------------|-6-7--6-9-7-6-7--||-6-7--6-9-7-6-9-|
||o-4-4-4-4-4-4-4-4-4-4-4-4-4-4-4-|-4-5--4-7-5-4-5-o||-4-5--4-7-5-4-7-|
||--------------------------------|-----------------||----------------|


Solo1
F#5
Gtr III
E S S S S S S S S S S S S S S
|----------------------------------------------|
|----------------------------------------------|
|-11-------------------------------------------|
|-11-------------------------------------------|
|--9--9--9--9--9--9--9--9--9--9--9--9--9--9--9-|
|----------------------------------------------|
|
| Gtr IV
| E S S S S S S S S S S S S S S
|----------------------------------------------|
|----------------------------------------------|
|-11-11-11-11-11-11-11-11-11-11-11-11-11-11-11-|
|----------------------------------------------|
|----------------------------------------------|
|----------------------------------------------|


F#5G5 F#5 A5 G5 F#5 G5
E Q E E E E E
|-----------------------------------------------------------|
|-----------------------------------------------------------|
|-11-12----------11----14-------12-------11-------12--------|
|-11-12----------11----14-------12-------11-------12--------|
|--9-10-----------9----12-------10--------9-------10--------|
|-----------------------------------------------------------|
|
| |--3--| |--3--| |--3--| |--3--|
| E S S S S S S S S S S S S S S S S S S
|-----------------------------------------------------------|
|-----------------------------------------------------------|
|-11-14-13-11-14-13-11-16-14-13-16-14-13-16-14-13-16-14-13--|
|-----------------------------------------------------------|
|-----------------------------------------------------------|
|-----------------------------------------------------------|


F#
E S S S S S S S S S S S S S S
|----------------------------------------------|
|----------------------------------------------|
|----------------------------------------------|
|----------------------------------------------|
|--9--9--9--9--9--9--9--9--9--9--9--9--9--9--9-|
|----------------------------------------------|
|
| E S S S S S S S S S S S S S S
|----------------------------------------------|
|-14-14-14-14-14-14-14-14-14-14-14-14-14-14-14-|
|----------------------------------------------|
|----------------------------------------------|
|----------------------------------------------|
|----------------------------------------------|


F#5G5 F#5 A5 G5 F#5 G5
E Q E E E E E
|-----------------------------------------------------------|
|-----------------------------------------------------------|
|-11-12----------11----14-------12-------11-------12--------|
|-11-12----------11----14-------12-------11-------12--------|
|--9-10-----------9----12-------10--------9-------10--------|
|-----------------------------------------------------------|
|
| |--3--| |--3--| |--3--| |--3--|
| E S S S S S S S S S S S S S S S S S S
|-----------------------------------------------------------|
|-14-15-14-12-15-14-12-17-15-14-17-15-14-17-15-14-17-15-14--|
|-----------------------------------------------------------|
|-----------------------------------------------------------|
|-----------------------------------------------------------|
|-----------------------------------------------------------|


F#
E S S S S S S S S S S S S S S
|----------------------------------------------|
|----------------------------------------------|
|----------------------------------------------|
|----------------------------------------------|
|--9--9--9--9--9--9--9--9--9--9--9--9--9--9--9-|
|----------------------------------------------|
|
| E S S S S S S S S S S S S S S
|-14-14-14-14-14-14-14-14-14-14-14-14-14-14-14-|
|----------------------------------------------|
|----------------------------------------------|
|----------------------------------------------|
|----------------------------------------------|
|----------------------------------------------|


F#5G5 F#5 A5 G5 F#5G5
E Q E E E E E
|-----------------------------------------|
|-----------------------------------------|
|-11-12----------11----14--12-------11-12-|
|-11-12----------11----14--12-------11-12-|
|--9-10-----------9----12--10--------9-10-|
|-----------------------------------------|
|
| E S S S S S S E. T T Q
|-14-17-16-14-17-16-14-19-----17-16-14----|
|-----------------------------------------|
|-----------------------------------------|
|-----------------------------------------|
|-----------------------------------------|
|-----------------------------------------|


F# F#5G5 F#5A5 G5 F#5G5
E S S S S S S S S S S S S S S E Q E E E E E
|----------------------------------|-----------------------------|
|----------------------------------|-----------------------------|
|----------------------------------|-11-12---11-14----12---11-12-|
|----------------------------------|-11-12---11-14----12---11-12-|
|--9-9-9--9-9-9-9--9-9-9-9-9-9-9-9-|--9-10----9-12----10----9-10-|
|----------------------------------|-----------------------------|
|
| Q E E E E Q E E E E E Q.
|-14-----12---9---12---9---5-------|----------5--8b9===8b9-------|
|----------------------------------|-----5-7---------------------|
|----------------------------------|--6--------------------------|
|----------------------------------|-----------------------------|
|----------------------------------|-----------------------------|
|----------------------------------|-----------------------------|


C#5 D5C#B5 C#5 D5C#E5
PM--------| PM--------|
|-3-| |-3-|
E S S S S S S Q Q Q E S S S S S S Q Q Q
|---------------------|---------------------|
|---------------------|---------------------|
|-6-6-6-6-6-6-6-7-6-4-|-6-6-6-6-6-6-6-7-6-9-|
|-6-------------7-6-4-|-6-------------7-6-9-|
|-4-------------5-4-2-|-4-------------5-4-7-|
|---------------------|---------------------|


C#5 D5C#B5 C#5 D5C#E5
PM--------| PM--------|
|-3-| |-3-|
E S S S S S S Q Q Q E S S S S S S Q Q Q
|---------------------|-----------------------|
|---------------------|-----------------------|
|-6-6-6-6-6-6-6-7-6-4-|-6-6-6-6-6-6-6-7-6-9---|
|-6-------------7-6-4-|-6-------------7-6-9---|
|-4-------------5-4-2-|-4-------------5-4-7---|
|---------------------|-----------------------|


F#5 G5 F#5E5 F#5 G5 F#5A5
PM------------| PM------------|
|-3--| |--3--|
E S S S S S S Q Q Q E S S S S S S Q Q Q
|------------------------------|-------------------------------|
|------------------------------|-------------------------------|
|-11-11-11-11-11-11-11-12-11-9-|-11-11-11-11-11-11-11-12-11-14-|
|-11-------------------12-11-9-|-11-------------------12-11-14-|
|--9-------------------10--9-7-|--9-------------------10--9-12-|
|------------------------------|-------------------------------|


F#5 G5 F#5E5 F#5 G5 F#5E5 C#5 C#5
PM------------| PM------------|
|-3--| |-3--|
E S S S S S S Q Q Q E S S S S S S Q Q Q W W
|------------------------------|------------------------------|----------|---------|
|------------------------------|------------------------------|----------|---------|
|-11-11-11-11-11-11-11-12-11-9-|-11-11-11-11-11-11-11-12-11-9-|-6--------|-4tr6----|
|-11-------------------12-11-9-|-11-------------------12-11-9-|-6--------|-6-------|
|--9-------------------10--9-7-|--9-------------------10--9-7-|-4--------|-4-------|
|------------------------------|------------------------------|----------|---------|


Verse1
C#5 A5
E S S S S S S S S S S E S S E S S S S S S S S S S E S S
||------------------------------|------------------------------|
||o-----------------------------|------------------------------|
||--6---------------------6-----|-2---------------------2------|
||--6---------------------6-----|-2---------------------2------|
||o-4-4-4-4-4-4-4-4-4-4-4-4-4-4-|-0-0-0-0-0-0-0-0-0-0-0-0-0-0--|
||------------------------------|------------------------------|


G#5 C#5 C#5B5C#5
E S S S S S S S S S S E S S S S Q E H 4x
|-----------------------------|----------------||
|-----------------------------|---------------o||
|-----------------------------|-----6--4-6-----||
|-6---------------------6-----|-----6--4-6-----||
|-6---------------------6-----|-4-4-4--2-4----o||
|-4-4-4-4-4-4-4-4-4-4-4-4-4-4-|----------------||


Interlude1
C#5 A5
Gtr III
W W
||--------------------------|-------------------------|
||o-------------------------|-------------------------|
||---6----------------------|--2----------------------|
||---6----------------------|--2----------------------|
||o--4----------------------|--0----------------------|
||--------------------------|-------------------------|
|
| Gtr IV
| E E E E E E E E E E E E E E E E
||--------------------------|-------------------------|
||o-------------------------|-------------------------|
||--------------------------|----------11-------------|
||--11-13-14-13-11-13-14-13-|-11-13-14----14-13-11-13-|
||o-------------------------|-------------------------|
||--------------------------|-------------------------|


1.
B5 C# C#5 B5 C#5
PM|
W S S Q E E Q.
|-----------------------|----------------------------------||
|-----------------------|---------------------------------o||
|--4--------------------|--------6--------4-6--------------||
|--4--------------------|--------6--------4-6--------------||
|--2--------------------|--4--4--4--------2-4-------------o||
|-----------------------|----------------------------------||
|
| E E E E E E Q S S S S E E E E S S S S
|-----------------------|----------------------------------||
|-----------------------|---------------------------------o||
|----------11-----------|-14-13-14-13-11-13-9-11--8-9-8-9--||
|-11-13-14----14-13-11--|----------------------------------||
|-----------------------|---------------------------------o||
|-----------------------|----------------------------------||


Verse2
2.
C#5 B5 C#5 C#5
PM|
S S Q E E Q. E S S S S S S S S S S E S S
|------------------------------------||------------------------------|
|------------------------------------||o-----------------------------|
|--------6--------4--6---------------||--6---------------------6-----|
|--------6--------4--6---------------||--6---------------------6-----|
|--4--4--4--------2--4---------------||o-4-4-4-4-4-4-4-4-4-4-4-4-4-4-|
|------------------------------------||------------------------------|
|
| S S S S E E E E S S S S W
|------------------------------------||------------------------------|
|-------------------12-10--9-10-9-10-||o-----------------------------|
|-14-13-14-13-11-13------------------||------------------------------|
|------------------------------------||------------------------------|
|------------------------------------||o-----------------------------|
|------------------------------------||------------------------------|


1.
A5 G#5 C#5B5C#5
E S S S S S S S S S S E S S E S S S S S S S S S S E S S S S Q E H
|-----------------------------|-----------------------------|----------------||
|-----------------------------|-----------------------------|---------------o||
|-2---------------------2-----|-----------------------------|-----6--4-6-----||
|-2---------------------2-----|-6---------------------6-----|-----6--4-6-----||
|-0-0-0-0-0-0-0-0-0-0-0-0-0-0-|-6---------------------6-----|-4-4-4--2-4----o||
|-----------------------------|-4-4-4-4-4-4-4-4-4-4-4-4-4-4-|----------------||
|
| W W W
|-----------------------------|-----------------------------|----------------||
|-----------------------------|-----------------------------|---------------o||
|-----------------------------|-----------------------------|----------------||
|-----------------------------|-----------------------------|----------------||
|-----------------------------|-----------------------------|---------------o||
|-----------------------------|-----------------------------|----------------||


Interlude2
2.
G#5 C#5 A5
E S S S S S S S S S S S S S S H H
|-------------------------------||--------------------------|
|-------------------------------||o-------------------------|
|-------------------------------||---6----------------------|
|-6-----------------------------||---6-----------7----------|
|-6-----------------------------||o--4-----------7----------|
|-4-4-4-4-4-4-4-4-4-4-4-4-4-4-4-||---------------5----------|
|
| W E E E E E E E E
|-------------------------------||--------------------------|
|-------------------------------||o-------------------------|
|-------------------------------||--------------------------|
|-------------------------------||--11-13-14-16----13-14-13-|
|-------------------------------||o-------------12----------|
|-------------------------------||--------------------------|


B5 G#5
H H
|---------------------------------------||
|--------------------------------------o||
|--4------------------------------------||
|--4-----------6------------------------||
|--2-----------6-----------------------o||
|--------------4------------------------||
|
| E E E E S S S S S S S S
|---------------------------------------||
|--------------------------------------o||
|---------------------------------------||
|----13-14-16-18-19-18-16-14-16-14-13---||
|-14-----------------------------------o||
|---------------------------------------||


C#5 A5 B5 G#5
PM------------------------------------------------------------
e e e e e e e e e e e e e e e e
|-------------------------|-------------------------------------|
|-------------------------|-------------------------------------|
|--6--6--6--6-------------|--4--4--4--4-------------------------|
|--6--6--6--6--7--7--7--7-|--4--4--4--4--6-----6-----6-----6----|
|--4--4--4--4--7--7--7--7-|--2--2--2--2--6-----6-----6-----6----|
|--------------5--5--5--5-|--------------4-----4-----4-----4----|
|
| E E E E E E E E E E E E S S S S S S S S
|-------------------------|-------------------------------------|
|-------------------------|-------------------------------------|
|-------------------------|-------------------------------------|
|-11-13-14-16----13-14-13-|----13-14-16-18-19-18-16-14-16-14-13-|
|-------------12----------|-14----------------------------------|
|-------------------------|-------------------------------------|


C#5 A5 B5 G#5
---------------------------------------|
e e e e e e e e e e e e H
|-------------------------|--------------------|
|-------------------------|--------------------|
|--6--6--6--6-------------|--4--4--4--4--------|
|--6--6--6--6--7--7--7--7-|--4--4--4--4--6----|
|--4--4--4--4--7--7--7--7-|--2--2--2--2--6----|
|--------------5--5--5--5-|--------------4----|
|
| E E E E E E E E E E E E H
|-------------------------|--------------------|
|-------------------------|--------------------|
|-------------------------|--------------------|
|-11-13-14-16----13-14-13-|----13-14-16-18----|
|-------------12----------|-14-----------------|
|-------------------------|--------------------|


Pre-Chorus
C#5 G#5 A5 A5 B5
PM------------|
H.. S S e e e e Q Q W H. Q
|---------------|---------------|----------|------------|
|---------------|---------------|----------|------------|
|-6-------------|---------------|-2--------|-2-------4--|
|-6-------------|---------------|-2--------|-2-------4--|
|-4---------4-4-|-4-6-7-6-4--6--|-0--------|-0-------2--|
|---------------|------------4--|----------|------------|


C#5 G#5 A5 G#5 B5
PM------------|
H.. S S e e e e Q Q W H H
|---------------|---------------|----------|-----------|
|---------------|---------------|----------|-----------|
|-6-------------|---------------|-2--------|------4----|
|-6-------------|---------------|-2--------|-6----4----|
|-4---------4-4-|-4-6-7-6-4--6--|-0--------|-6----2----|
|---------------|------------4--|----------|-4---------|


C#5 G#5
PM---------------------------------------
E S S E S S E S S E S S E E E E Q Q
|-------------------------|---------------|
|-------------------------|---------------|
|-6-----------------------|---------------|
|-6-----------------------|-4-6-7-6-4-----|
|-4-4-4-4-4-4-4-4-4-4-4-4-|------------6--|
|-------------------------|------------4--|


A5 G#5 B5
-------------------------------------------------|
E S S E S S E S S E S S E S S E S S E S S E S S
|-------------------------|---------------------------|
|-------------------------|---------------------------|
|-2-----------------------|-------------4-------------|
|-2-----------------------|-6-----------4-------------|
|-0-0-0-0-0-0-0-0-0-0-0-0-|-6-----------2-2-2-2-2-2---|
|-------------------------|-4-4-4-4-4-4---------------|


C#5 G#5
PM---------------------------------------
E S S E S S E S S E S S E E E E Q Q
|-------------------------|---------------|
|-------------------------|---------------|
|-6-----------------------|---------------|
|-6-----------------------|-6-7-9-7-6-----|
|-4-4-4-4-4-4-4-4-4-4-4-4-|------------6--|
|-------------------------|------------4--|


A5 G#5 B5
-------------------------------------------------|
E S S E S S E S S E S S E S S E S S E S S E S S
|-------------------------|---------------------------|
|-------------------------|---------------------------|
|-2-----------------------|-------------4-------------|
|-2-----------------------|-6-----------4-------------|
|-0-0-0-0-0-0-0-0-0-0-0-0-|-6-----------2-2-2-2-2-2---|
|-------------------------|-4-4-4-4-4-4---------------|


Interlude3
C#5 B5
W +W W +W
|---------------|--------------------|---------------|------------------|
|---------------|--------------------|---------------|------------------|
|-6-------------|-(6)----------------|-4-------------|-(4)--------------|
|-6-------------|-(6)----------------|-4-------------|-(4)--------------|
|-4-------------|-(4)----------------|-2-------------|-(2)--------------|
|---------------|--------------------|---------------|------------------|
|
| Gtr IV
| Q E Q. E E +Q E Q E S S E Q E Q. E E +Q E Q E Q
|---------------|--------------------|---------------|------------------|
|---------------|--------------------|---------------|------------------|
|-6--9-8------6-|-(6)--9-8--9-11-9-8-|-6--9-8------6-|-(6)--9-8--9-/12--|
|-----------9---|--------------------|-----------9---|------------------|
|---------------|--------------------|---------------|------------------|
|---------------|--------------------|---------------|------------------|


A5
W +W
|---------------|--------------------|
|---------------|--------------------|
|-2-------------|-(2)----------------|
|-2-------------|-(2)----------------|
|-0-------------|-(0)----------------|
|---------------|--------------------|
|
| Q E Q. E E +Q E Q E S S E
|---------------|--------------------|
|---------------|--------------------|
|-6--9-8------6-|-(6)--9-8--9-11-9-8-|
|-----------9---|--------------------|
|---------------|--------------------|
|---------------|--------------------|


B5
W +W
|---------------|----------------------------|
|---------------|----------------------------|
|-4-------------|-(4)------------------------|
|-4-------------|-(4)------------------------|
|-2-------------|-(2)------------------------|
|---------------|----------------------------|
|
| Q E Q. E E +Q S S S S S S S S Q
|---------------|----------------------------|
|---------------|----------------------------|
|-6--9-8------6-|-(6)--9-8-9-8-11-9-11-9-13--|
|-----------9---|----------------------------|
|---------------|----------------------------|
|---------------|----------------------------|


C#5
E S S S S S S S S S S S S S S S S S S S S S S S S S S S S S S
|--------------------------------|------------------------------------|
|--------------------------------|------------------------------------|
|-6------------------------------|------------------------------------|
|-6------------------------------|------------------------------------|
|-4-4-4-4-4-4--4-4-4-4-4-4-4-4-4-|--4--4-4-4-4-4-4-4-4-4-4-4--4-4-4-4-|
|--------------------------------|------------------------------------|
|
| Q E Q. E E +Q E Q E S S E
|--------------------------------|------------------------------------|
|-5-----9---7----------------5---|-(5)-------9---7-------9---10-9-7---|
|-6-----9---8------------8---6---|-(6)-------9---8-------9---11-9-8---|
|------------------------9-------|------------------------------------|
|--------------------------------|------------------------------------|
|--------------------------------|------------------------------------|


B5
E S S S S S S S S S S S S S S S S S S S S S S S S S S S S S S
|--------------------------------|----------------------------------------|
|--------------------------------|----------------------------------------|
|-4------------------------------|----------------------------------------|
|-4------------------------------|----------------------------------------|
|-2-2-2-2-2-2--2-2-2-2-2-2-2-2-2-|--2--2-2-2-2-2-2-2-2-2-2-2---2-2-2-2----|
|--------------------------------|----------------------------------------|
|
| Q E Q. E E +Q E Q E Q
|--------------------------------|----------------------------------------|
|-5-----9---7----------------5---|-(5)-------9---7-------9----12----------|
|-6-----9---8------------8---6---|-(6)-------9---8-------9---/12----------|
|------------------------9-------|----------------------------------------|
|--------------------------------|----------------------------------------|
|--------------------------------|----------------------------------------|


A5
E S S S S S S S S S S S S S S S S S S S S S S S S S S S S S S
|--------------------------------|------------------------------------|
|--------------------------------|------------------------------------|
|-2------------------------------|------------------------------------|
|-2------------------------------|------------------------------------|
|-0-0-0-0-0-0--0-0-0-0-0-0-0-0-0-|--0--0-0-0-0-0-0-0-0-0-0-0--0-0-0-0-|
|--------------------------------|------------------------------------|
|
| Q E Q. E E +Q E Q E S S E
|--------------------------------|------------------------------------|
|-5-----9---7----------------5---|-(5)-------9---7-------9---10-9-7---|
|-6-----9---8------------8---6---|-(6)-------9---8-------9---11-9-8---|
|------------------------9-------|------------------------------------|
|--------------------------------|------------------------------------|
|--------------------------------|------------------------------------|


B5
E S S S S S S S S S S S S S S S S S S S S S S S S S S S S S S
|--------------------------------|--------------------------------------------------|
|--------------------------------|--------------------------------------------------|
|-4------------------------------|--------------------------------------------------|
|-4------------------------------|--------------------------------------------------|
|-2-2-2-2-2-2--2-2-2-2-2-2-2-2-2-|--2--2-2-2--2--2--2--2--2--2--2--2--2--2--2--2----|
|--------------------------------|--------------------------------------------------|
|
| Q E Q. E E +Q S S S S S S S S S S S S
|--------------------------------|--------------------------------------------------|
|-5-----9---7----------------5---|-(5)-------12-14-12-14-12-14-12-14-12-14-12-14----|
|-6-----9---8------------8---6---|-(6)----------------------------------------------|
|------------------------9-------|--------------------------------------------------|
|--------------------------------|--------------------------------------------------|
|--------------------------------|--------------------------------------------------|


Chorus
C#5
E S S S S S S S S S S S S S S S S S S S S S S S S S S S S S S
|-------------------------------|---------------------------------|
|-------------------------------|---------------------------------|
|-6-----------------------------|---------------------------------|
|-6-----------------------------|---------------------------------|
|-4-4-4-4-4-4-4-4-4-4-4-4-4-4-4-|-4-4-4-4-4-4-4-4-4-4-4-4-4-4-4-4-|
|-------------------------------|---------------------------------|


B5
E S S S S S S S S S S S S S S E S S S S E S S S S E S S
|-------------------------------|---------------------------|
|-------------------------------|---------------------------|
|-4-----------------------------|-4---------4---------4-----|
|-4-----------------------------|-4---------4---------4-----|
|-2-2-2-2-2-2-2-2-2-2-2-2-2-2-2-|-2-2-2-2-2-2-2-2-2-2-2-2-2-|
|-------------------------------|---------------------------|


A5
E S S S S E E S S S S E E S S S S E E S S S S E
|-------------------------|-------------------------|
|-------------------------|-------------------------|
|-2---------2-2-----------|-2---------2-2-----------|
|-2---------2-2---------2-|-2---------2-2---------2-|
|-0-0-0-0-0-0-0-0-0-0-0-0-|-0-0-0-0-0-0-0-0-0-0-0-0-|
|-------------------------|-------------------------|


G#5
E S S S S S S S S S S S S S S E S S S S S S E S S S S S S
|-------------------------------|------------------------------|
|-------------------------------|------------------------------|
|-------------------------------|-2-------------4--------------|
|-6-----------------------------|-2-------------4--------------|
|-6---------6-------------------|-0-0-0-0-0-0-0-2-2-2-2-2-2-2--|
|-4-4-4-4-4-4-4-4-4-4-4-4-4-4-4-|------------------------------|


C#5
E S S S S S S S S S S S S S S S S S S S S S S S S S S S S S S
|-------------------------------|---------------------------------|
|-------------------------------|---------------------------------|
|-6-----------------------------|---------------------------------|
|-6-----------------------------|---------------------------------|
|-4-4-4-4-4-4-4-4-4-4-4-4-4-4-4-|-4-4-4-4-4-4-4-4-4-4-4-4-4-4-4-4-|
|-------------------------------|---------------------------------|


B5
E S S S S S S S S S S S S S S E S S S S E S S S S E S S
|-------------------------------|---------------------------|
|-------------------------------|---------------------------|
|-4-----------------------------|-4---------4---------4-----|
|-4-----------------------------|-4---------4---------4-----|
|-2-2-2-2-2-2-2-2-2-2-2-2-2-2-2-|-2-2-2-2-2-2-2-2-2-2-2-2-2-|
|-------------------------------|---------------------------|


A5
E S S S S E E S S S S E E S S S S E E S S S S E
|-------------------------|-------------------------|
|-------------------------|-------------------------|
|-2---------2-2-----------|-2---------2-2-----------|
|-2---------2-2---------2-|-2---------2-2---------2-|
|-0-0-0-0-0-0-0-0-0-0-0-0-|-0-0-0-0-0-0-0-0-0-0-0-0-|
|-------------------------|-------------------------|


G#5 A5 B5
E S S S S S S S S S S S S S S E S S S S S S E S S S S S S
|-------------------------------|------------------------------|
|-------------------------------|------------------------------|
|-------------------------------|-2-------------4--------------|
|-6-----------------------------|-2-------------4--------------|
|-6---------6-------------------|-0-0-0-0-0-0-0-2-2-2-2-2-2-2--|
|-4-4-4-4-4-4-4-4-4-4-4-4-4-4-4-|------------------------------|


Solo3
C#5
E S S S S S S S S S S S S S S S S S S S S S S S S S S S S S S
|------------------------------------|---------------------------------------|
|------------------------------------|---------------------------------------|
|---6--------------------------------|---------------------------------------|
|---6--------------------------------|---------------------------------------|
|---4----4-4-4-4-4-4-4-4-4-4-4-4-4-4-|-4----4-4-4-4-4-4-4-4----4-4-4-4-4-4-4-|
|------------------------------------|---------------------------------------|
|
| Gtr IV
| a W H H
|------------------------------------|---------------------------------------|
|-2-0tr2-----------------------------|-4tr2---------------5tr4---------------|
|------------------------------------|---------------------------------------|
|------------------------------------|---------------------------------------|
|------------------------------------|---------------------------------------|
|------------------------------------|---------------------------------------|


B5 B5
E S S S S S S S S S S S S S S E S S S S E S S S S E S S
|-------------------------------------|-------------------------------------------------------|
|-------------------------------------|-------------------------------------------------------|
|-4-----------------------------------|--4---------------------4---------------------4--------|
|-4-----------------------------------|--4---------------------4---------------------4--------|
|-2----2-2-2-2-2-2-2-2-2-2-2-2-2-2----|--2------2--2----2---2--2------2--2----2---2--2-2-2----|
|-------------------------------------|-------------------------------------------------------|
|
| |-3--| |--3---| |-3--| |--3---|
| W a S S S S S S S S S S S S S S S S Q
|-------------------------------------|-------------------------------------------------------|
|-7b9==============================7r-|-12-10-9-7-12-10---9-7-12-10-9-7-12-10---9-7-12--------|
|-------------------------------------|-------------------------------------------------------|
|-------------------------------------|-------------------------------------------------------|
|-------------------------------------|-------------------------------------------------------|
|-------------------------------------|-------------------------------------------------------|


A5
E S S S S E E S S S S E E S S S S E E S S S S E
|-------------------------------------|------------------------------------------------|
|-------------------------------------|------------------------------------------------|
|--2--------------2--2----------------|--2---------------------2-------2---------------|
|--2--------------2--2--------------2-|--2---------------------2-------2-----------2---|
|--0--0--0--0--0--0--0--0--0--0--0--0-|--0-----0--0----0--0----0-------0--0-0--0-0-0---|
|-------------------------------------|------------------------------------------------|
|
| E S S S S E E S S S S E E S E E E. S S S S S S
|-------------------------------------|------------------------------------------------|
|-14-14-16-17-16-14-14-14-16-17-16-14-|-17b19-14s12b14---------------------------------|
|-------------------------------------|------------------------------------------------|
|-------------------------------------|------------------13b14---13b14---11-9-11-9-7-9-|
|-------------------------------------|------------------------------------------------|
|-------------------------------------|------------------------------------------------|


G#5 A5 B5
E S S S S S S S S S S S S S S E S S S S S S E S S S S S S
|---------------------------------------------|--------------------------------------------------|
|---------------------------------------------|--------------------------------------------------|
|---------------------------------------------|--2-----------------------------4-----------------|
|--6------------------------------------------|--2-----------------------------4-----------------|
|--6---------------6--------------------------|--0----0-------0-0-0-------0-0--2----2-2-2-2--2--2|
|--4-4----4-4-4----4-4--4-4-4----4-4-4----4-4-|--------------------------------------------------|
|
| |------3------| |-------3-------| |---------3---------|
| Q Q Q Q Q Q Q Q Q Q. S S
|---------------------------------------------|--------------------------------------------------|
|---------------------------------------------|-10b12---12b14-------12b14-----12b14---------14-16|
|----------------------11-----13-------14-----|--------------------------------------------------|
|-11---13-------14----------------------------|--------------------------------------------------|
|---------------------------------------------|--------------------------------------------------|
|---------------------------------------------|--------------------------------------------------|


C#5
E S S S S S S S S S S S S S S S S S S S S S S S S S S S S S S
|-------------------------------------------------|---------------------------------------------|
|-------------------------------------------------|---------------------------------------------|
|--6----------------------------------------------|---------------------------------------------|
|--6----------------------------------------------|---------------------------------------------|
|--4-----4--4--4--4--4--4--4--4--4--4--4--4--4--4-|--4--4--4--4--4--4--4--4--4----4-4-4-4-4-4-4-|
|-------------------------------------------------|---------------------------------------------|
|
| S S S S S S S S S S S S S S S S S S S S S S S S H
|-------------------------------------------------|---------------------------------------------|
|-17-16-14-16-17-16-14-16-17-16-14-16-17-16-14-16-|-17-16-14-16-17-16-14-16-17b19---------------|
|-------------------------------------------------|---------------------------------------------|
|-------------------------------------------------|---------------------------------------------|
|-------------------------------------------------|---------------------------------------------|
|-------------------------------------------------|---------------------------------------------|


B5
E S S S S S S S S S S S S S S E S S S S E S S S S E S S
|----------------------------------------------|--------------------------------------|
|----------------------------------------------|--------------------------------------|
|--4-------------------------------------------|--4-------------4------------4--------|
|--4-------------------------------------------|--4-------------4------------4--------|
|--2-----2--2--2--2--2--2--2--2--2--2--2-2-2-2-|--2--2--2--2--2-2----2-2-2-2-2-2-2----|
|----------------------------------------------|--------------------------------------|
|
| S S S S S S S S S S S S Q E S S S S S S H
|----------------------------------------------|--------------------------------------|
|----------------------------------------------|--------------------------------------|
|-------------------14-13-11-------------------|--------------------------------------|
|-13-14-13-14-13-11----------14-16-14-16-------|-16-14-13-11-11-9---------------------|
|----------------------------------------------|------------------11-9----------------|
|----------------------------------------------|--------------------------------------|


A5
E S S S S E E S S S S E E S S S S E E S S S S E
|---------------------------------------|---------------------------------------|
|---------------------------------------|---------------------------------------|
|--2---------------2--2-----------------|--2---------------2--2-----------------|
|--2---------------2--2---------------2-|--2---------------2--2---------------2-|
|--0-0----0-0-0----0--0-0----0-0-0----0-|--0-0----0-0-0----0--0-0----0-0-0----0-|
|---------------------------------------|---------------------------------------|
|
| |------3------| |------3------| |------3------| |------3------|
| Q Q Q Q Q Q Q Q Q Q Q Q
|---------------------------------------|---------------------------------------|
|---------------------------------------|---------------------------------------|
|--------------------11------------11---|-13---14-------13---11-----------------|
|-11---13-------14--------14------------|-------------------------14-------13---|
|---------------------------------------|---------------------------------------|
|---------------------------------------|---------------------------------------|


G#5 A5 B5
E S S S S S S S S S S S S S S E S S S S S S E
|-----------------------------------------------------------|---------------------
|-----------------------------------------------------------|---------------------
|-----------------------------------------------------------|--2------------------
|--6--------------------------------------------------------|--2------------------
|--6-------------------6------------------------------------|--0----0----0--0-0---
|--4----4----4--4-4----4----4--4-4----4----4--4-4----4----4-|---------------------

S S S S S S
---------------------------------------|
---------------------------------------|
---------4-----------------------------|
---------4-----------------------------|
-0----0--2----2----2--2-2----2----2----|
---------------------------------------|

|
| |---3---| |----3----| |----3----| |----3----| |---3---| |----3----|
| E E E E E E E E E E E E E E E E E E E E
|-----------------------------------------------------------|---------------------
|-17-16---14---16---14---12---14---12--------12-------------|---------------------
|---------------------------------------14--------14---13---|-14-13---11---13---
|-----------------------------------------------------------|---------------------
|-----------------------------------------------------------|---------------------
|-----------------------------------------------------------|---------------------

E E E E
---------------------------------------|
---------------------------------------|
11--------11---------------------------|
---14------14---13---14---13---11------|
---------------------------------------|
---------------------------------------|


C#5
E S S S S S S S S S S S S S S S S S S S S S S S S S S S S S S
|--------------------------------------|----------------------------------------|
|--------------------------------------|----------------------------------------|
|-----6--------------------------------|----------------------------------------|
|-----6--------------------------------|----------------------------------------|
|-----4----4-4-4-4-4-4-4-4-4-4-4-4-4-4-|---4-----4-4-4-4-4-4-4--4-4-4-4-4-4-4-4-|
|--------------------------------------|----------------------------------------|
|
| ~~~~~
| a W +H Q Q
|--------------------------------------|----------------------------------------|
|--------------------------------------|----------------------------------------|
|-11-11b13-----------------------------|-(11)b13---------------11-------9-------|
|--------------------------------------|----------------------------------------|
|--------------------------------------|----------------------------------------|
|--------------------------------------|----------------------------------------|


B5
E S S S S S S S S S S S S S S E S S S S E S S S S E S S
|-------------------------------|----------------------------------|
|-------------------------------|----------------------------------|
|-4-----------------------------|-4-----------4-----------4--------|
|-4-----------------------------|-4-----------4-----------4--------|
|-2-2-2-2-2-2-2-2-2-2-2-2-2-2-2-|-2---2-2-2-2-2---2-2-2-2-2-2-2----|
|-------------------------------|----------------------------------|
|
| ~
| Q E H S S S S S S S S S S S S S S E S S
|-------------------------------|----------------------------------|
|-------------------------------|---------5-4-5-4-7-5-7-5-7-7-5----|
|-8-----9---6---------------6-4-|-6-4-6-4--------------------------|
|-------------------------------|----------------------------------|
|-------------------------------|----------------------------------|
|-------------------------------|----------------------------------|


A5
E S S S S E E S S S S E E S S S S E E S S S S E
|---------------------------------|---------------------------------|
|---------------------------------|---------------------------------|
|-2-----------2-2-----------------|--2-------------2-2--------------|
|-2-----------2-2------------2----|--2-------------2-2------------2-|
|-0-0-0--0--0-0-0---0-0-0-0--0----|--0--0--0--0-0--0-0--0-0--0-0--0-|
|---------------------------------|---------------------------------|
|
| TP TP TP TP TP TP
| E E +E E Q. S S E. E. Q E E E
|---5---(5)-----7b9---------------|---------------------------------|
|-------------7-------------------|-14----16------17---19---17---16-|
|-6-------------------------------|---------------------------------|
|---------------------------14-14-|---------------------------------|
|---------------------------------|---------------------------------|
|---------------------------------|---------------------------------|


G#5 A5 B5
E S S S S S S S S S S S S S S E S S S S S S E S S S S S S
|-------------------------------------------|--------------------------------------|
|-------------------------------------------|--------------------------------------|
|-------------------------------------------|--2------------------4----------------|
|-6-----------------------------------------|--2------------------4----------------|
|-6----------------6------------------------|--0--0--0--0-0--0-0--2--2--2--2-2-2-2-|
|-4-----4--4--4-4--4-4--4--4-4--4--4-4--4-4-|--------------------------------------|
|
| ~~~~~
| E. E. E E. E. E E. E. E E. E. E
|-2(14)-------------------------------------|--------------------------------------|
|---------17------16---14-------------------|--------------------------------------|
|------------------------------16------14---|-13----11-----------------------------|
|-------------------------------------------|---------------14---13----11------9---|
|-------------------------------------------|--------------------------------------|
|-------------------------------------------|--------------------------------------|


Chorus
C#5
E S S S S S S S S S S S S S S S S S S S S S S S S S S S S S S
|--------------------------------|---------------------------------|
|--------------------------------|---------------------------------|
|--6-----------------------------|---------------------------------|
|--6-----------------------------|---------------------------------|
|--4-4-4-4-4-4-4-4-4-4-4-4-4-4-4-|-4-4-4-4-4-4-4-4-4-4-4-4-4-4-4-4-|
|--------------------------------|---------------------------------|
|
| ~~
| W W
|--------------------------------|---------------------------------|
|--------------------------------|---------------------------------|
|--------------------------------|---------------------------------|
|-11-----------------------------|---------------------------------|
|--------------------------------|---------------------------------|
|--------------------------------|---------------------------------|


B5
E S S S S S S S S S S S S S S E S S S S E S S S S E S S
|-------------------------------|---------------------------|
|-------------------------------|---------------------------|
|-4-----------------------------|-4---------4---------4-----|
|-4-----------------------------|-4---------4---------4-----|
|-2-2-2-2-2-2-2-2-2-2-2-2-2-2-2-|-2-2-2-2-2-2-2-2-2-2-2-2-2-|
|-------------------------------|---------------------------|
|
| W W
|-------------------------------|---------------------------|
|-------------------------------|---------------------------|
|-------------------------------|---------------------------|
|-------------------------------|---------------------------|
|-------------------------------|---------------------------|
|-------------------------------|---------------------------|


A5
E S S S S E E S S S S E E S S S S E E S S S S E
|-------------------------|-------------------------|
|-------------------------|-------------------------|
|-2---------2-2-----------|-2---------2-2-----------|
|-2---------2-2---------2-|-2---------2-2---------2-|
|-0-0-0-0-0-0-0-0-0-0-0-0-|-0-0-0-0-0-0-0-0-0-0-0-0-|
|-------------------------|-------------------------|


G#5 A5 B5
E S S S S S S S S S S S S S S E S S S S S S E S S S S S S
|-------------------------------|------------------------------|
|-------------------------------|------------------------------|
|-------------------------------|-2-------------4--------------|
|-6-----------------------------|-2-------------4--------------|
|-6---------6-------------------|-0-0-0-0-0-0-0-2-2-2-2-2-2-2--|
|-4-4-4-4-4-4-4-4-4-4-4-4-4-4-4-|------------------------------|


C#5
E S S S S S S S S S S S S S S S S S S S S S S S S S S S S S S
|-------------------------------|---------------------------------|
|-------------------------------|---------------------------------|
|-6-----------------------------|---------------------------------|
|-6-----------------------------|---------------------------------|
|-4-4-4-4-4-4-4-4-4-4-4-4-4-4-4-|-4-4-4-4-4-4-4-4-4-4-4-4-4-4-4-4-|
|-------------------------------|---------------------------------|


B5
E S S S S S S S S S S S S S S E S S S S E S S S S E S S
|-------------------------------|---------------------------|
|-------------------------------|---------------------------|
|-4-----------------------------|-4---------4---------4-----|
|-4-----------------------------|-4---------4---------4-----|
|-2-2-2-2-2-2-2-2-2-2-2-2-2-2-2-|-2-2-2-2-2-2-2-2-2-2-2-2-2-|
|-------------------------------|---------------------------|


A5
E S S S S E E S S S S E E S S S S E E S S S S E
|-------------------------|-------------------------|
|-------------------------|-------------------------|
|-2---------2-2-----------|-2---------2-2-----------|
|-2---------2-2---------2-|-2---------2-2---------2-|
|-0-0-0-0-0-0-0-0-0-0-0-0-|-0-0-0-0-0-0-0-0-0-0-0-0-|
|-------------------------|-------------------------|


G#5 A5 B5
E S S S S S S S S S S S S S S E S S S S S S E S S S S S S
|-------------------------------|------------------------------|
|-------------------------------|------------------------------|
|-------------------------------|-2-------------4--------------|
|-6-----------------------------|-2-------------4--------------|
|-6---------6-------------------|-0-0-0-0-0-0-0-2-2-2-2-2-2-2--|
|-4-4-4-4-4-4-4-4-4-4-4-4-4-4-4-|------------------------------|


Solo4
C#5
E S S S S S S S S S S S S S S S S S S S S S S S S S S S S S S
|---------------------------------------|-----------------------------------------|
|---------------------------------------|-----------------------------------------|
|--6------------------------------------|-----------------------------------------|
|--6------------------------------------|-----------------------------------------|
|--4--4-4--4-4--4-4--4-4--4-4--4-4--4-4-|--4-4--4-4--4-4--4-4--4-4--4-4--4-4--4-4-|
|---------------------------------------|-----------------------------------------|
|
| Gtr IV
| E E E E E E E E E E E E E E E E
|---------------------------------------|-----------------------------------------|
|---------------------------------------|-----------------------------------------|
|---------------------------------------|----------------11-----------------------|
|-11-13---14---13---11---13---14---13---|------13---14--------14---13---11---13---|
|---------------------------------------|-12--------------------------------------|
|---------------------------------------|-----------------------------------------|


B5
E S S S S S S S S S S S S S S E S S S S E S S S S E S S
|--------------------------------------|-----------------------------------------|
|--------------------------------------|-----------------------------------------|
|--4-----------------------------------|--4----------------4----------4----------|
|--4-----------------------------------|--4----------------4----------4----------|
|--2--2-2--2-2--2-2--2-2--2-2--2-2-2-2-|--2-----2--2--2-2--2-2-2--2-2-2---2-2----|
|--------------------------------------|-----------------------------------------|
|
| E E E E E E Q S S S S E E E E S S S S
|--------------------------------------|-----------------------------------------|
|--------------------------------------|-----------------------------------------|
|--------------11----------------------|-14-13-14-13-11---13-9---11---8-9-8-9----|
|----13---14--------14---13---11-------|-----------------------------------------|
|-14-----------------------------------|-----------------------------------------|
|--------------------------------------|-----------------------------------------|


A5
E E E E E E E E E E E E E E E E
|-------------------------|-------------------------|
|-------------------------|-------------------------|
|--2-----2-----2-----2----|--2-----2-----2-----2----|
|--2-----2-----2-----2----|--2-----2-----2-----2----|
|--0-----0-----0-----0----|--0-----0-----0-----0----|
|-------------------------|-------------------------|
|
| E E E E E E E E E E E E E E E E
|-------------------------|-------------------------|
|-------------------------|-------------------------|
|-------------------------|----------11-------------|
|-11-13-14-13-11-13-14-13-|----13-14----14-13-11-13-|
|-------------------------|-12----------------------|
|-------------------------|-------------------------|


G#5 A5 B5
E E E E E E E E H H
|------------------------|---------------------------------|
|------------------------|---------------------------------|
|------------------------|--2----------------4-------------|
|--6-----6-----6-----6---|--2----------------4-------------|
|--6-----6-----6-----6---|--0----------------2-------------|
|--4-----4-----4-----4---|---------------------------------|
|
| E E E E E E Q S S S S E E E E S S S S
|------------------------|---------------------------------|
|------------------------|---------------------------------|
|----------11------------|-14-13-14-13-11-13-9-11-8-9-8-9--|
|----13-14----14-13-11---|---------------------------------|
|-14---------------------|---------------------------------|
|------------------------|---------------------------------|


Bridge
C#5 B5 C#5 A5 C#5 B5 C#5 A5
E Q Q. Q E Q Q. Q E Q Q. Q E Q Q. Q
|--------------|--------------|--------------|---------------|
|--------------|--------------|--------------|---------------|
|-6---------4--|-6---------2--|-6---------4--|-6---------2---|
|-6---------4--|-6---------2--|-6---------4--|-6---------2---|
|-4---------2--|-4---------0--|-4---------2--|-4---------0---|
|--------------|--------------|--------------|---------------|


B5 B#5
E S S S S S S S S S S S S S S E S S S S S S S S S S S S S S
|-------------------------------|-------------------------------|
|-------------------------------|-------------------------------|
|-4-----------------------------|-5-----------------------------|
|-4-----------------------------|-5-----------------------------|
|-2-2-2-2-2-2-2-2-2-2-2-2-2-2-2-|-3-3-3-3-3-3-3-3-3-3-3-3-3-3-3-|
|-------------------------------|-------------------------------|
|
| W W
|-------------------------------|-------------------------------|
|-------------------------------|-------------------------------|
|-------------------------------|-------------------------------|
|-------------------------------|-------------------------------|
|-------------------------------|-------------------------------|
|-------------------------------|-------------------------------|


C#5 C#5
E S S S S S S S S S S S S S S E S S S S S S S S S S S S S S
|-------------------------------------------------|-----------------------------------------|
|-------------------------------------------------|-----------------------------------------|
|--6----------------------------------------------|-6---------------------------------------|
|--6----------------------------------------------|-6---------------------------------------|
|--4-----4--4--4--4--4--4--4--4--4--4--4--4--4--4-|-4----4--4-4--4-4-4-4---4-4-4-4-4-4-4----|
|-------------------------------------------------|-----------------------------------------|
|
| Gtr IV
| S S S S S S S S S S S S S S S S S S S S S S S S H
|-------------------------------------------------|-----------------------------------------|
|-------------------------------------------------|-----------------------------------------|
|-13-14-13-11-------------------------------------|-----------------------------------------|
|-------------14-16-14-13-11-13-11----------------|-----------------------------------------|
|----------------------------------14-12-14-12-11-|-9-11-9----------------------------------|
|-------------------------------------------------|--------12-9-11-9-7-7b9------------------|


B5 B#5
E S S S S S S S S S S S S S S E S S S S S S S S S S S S S S
|-------------------------------|-------------------------------|
|-------------------------------|-------------------------------|
|-4-----------------------------|-5-----------------------------|
|-4-----------------------------|-5-----------------------------|
|-2-2-2-2-2-2-2-2-2-2-2-2-2-2-2-|-3-3-3-3-3-3-3-3-3-3-3-3-3-3-3-|
|-------------------------------|-------------------------------|
|
| W W
|-------------------------------|-------------------------------|
|-------------------------------|-------------------------------|
|-------------------------------|-------------------------------|
|-------------------------------|-------------------------------|
|-------------------------------|-------------------------------|
|-------------------------------|-------------------------------|


C#5 D5C#B5 C#5 D5C#E5
PM--------| PM--------|
|-3-| |-3-|
E S S S S S S Q Q Q E S S S S S S Q Q Q
|---------------------|---------------------|
|---------------------|---------------------|
|-6-------------7-6-4-|-6-------------7-6-9-|
|-6-------------7-6-4-|-6-------------7-6-9-|
|-4-4-4-4-4-4-4-5-4-2-|-4-4-4-4-4-4-4-5-4-7-|
|---------------------|---------------------|
|
| |-3-| |-3-|
| E S S S S S S Q Q Q E S S S S S S Q Q Q
|---------------------|---------------------|
|---------------------|---------------------|
|-6-6-6-6-6-6-6-7-6-4-|-6-6-6-6-6-6-6-7-6-9-|
|---------------------|---------------------|
|---------------------|---------------------|
|---------------------|---------------------|


C#5 D5C#B5 C#5 D5C#E5
PM--------| PM--------|
|-3-| |-3-|
E S S S S S S Q Q Q E S S S S S S Q Q Q
|---------------------|---------------------|
|---------------------|---------------------|
|-6-------------7-6-4-|-6-------------7-6-9-|
|-6-------------7-6-4-|-6-------------7-6-9-|
|-4-4-4-4-4-4-4-5-4-2-|-4-4-4-4-4-4-4-5-4-7-|
|---------------------|---------------------|
|
| |-3-| |-3-|
| E S S S S S S Q Q Q E S S S S S S Q Q Q
|---------------------|---------------------|
|---------------------|---------------------|
|-6-6-6-6-6-6-6-7-6-4-|-6-6-6-6-6-6-6-7-6-9-|
|---------------------|---------------------|
|---------------------|---------------------|
|---------------------|---------------------|


F#5 G5 F#5E5 F#5 G5 F#5A5
PM------------| PM------------|
|-3--| |--3--|
E S S S S S S Q Q Q E S S S S S S Q Q Q
|------------------------------|---------------------------------|
|------------------------------|---------------------------------|
|-11-------------------12-11-9-|-11-------------------12-11-14---|
|-11-------------------12-11-9-|-11-------------------12-11-14---|
|--9--9--9--9--9--9--9-10--9-7-|--9--9--9--9--9--9--9-10--9-12---|
|------------------------------|---------------------------------|
|
| |-3--| |--3--|
| E S S S S S S Q Q Q E S S S S S S Q Q Q
|------------------------------|---------------------------------|
|------------------------------|---------------------------------|
|-11-11-11-11-11-11-11-12-11-9-|-11-11-11-11-11-11-11-12-11-14---|
|------------------------------|---------------------------------|
|------------------------------|---------------------------------|
|------------------------------|---------------------------------|


F#5 G5 F#5E5
PM------------|
|-3--|
E S S S S S S Q Q Q
|------------------------------|
|------------------------------|
|-11-------------------12-11-9-|
|-11-------------------12-11-9-|
|--9--9--9--9--9--9--9-10--9-7-|
|------------------------------|
|
| |-3--|
| E S S S S S S Q Q Q
|------------------------------|
|------------------------------|
|-11-11-11-11-11-11-11-12-11-9-|
|------------------------------|
|------------------------------|
|------------------------------|


F#5 G5 F#5E5 C#5
PM------------|
|-3--|
E S S S S S S Q Q Q W +W
|------------------------------|----------|--------|
|------------------------------|----------|--------|
|-11-------------------12-11-9-|-6--------|-(6)----|
|-11-------------------12-11-9-|-6--------|-(6)----|
|--9--9--9--9--9--9--9-10--9-7-|-4--------|-(4)----|
|------------------------------|----------|--------|
|
| |-3--|
| E S S S S S S Q Q Q W +W
|------------------------------|----------|--------|
|------------------------------|----------|--------|
|-11-11-11-11-11-11-11-12-11-9-|-6--------|-(6)----|
|------------------------------|----------|--------|
|------------------------------|----------|--------|
|------------------------------|----------|--------|


Verse
C#5 A5
E S S S S S S S S S S E S S E S S S S S S S S S S E S S
||------------------------------|-----------------------------|
||o-----------------------------|-----------------------------|
||--6---------------------6-----|-2---------------------2-----|
||--6---------------------6-----|-2---------------------2-----|
||o-4-4-4-4-4-4-4-4-4-4-4-4-4-4-|-0-0-0-0-0-0-0-0-0-0-0-0-0-0-|
||------------------------------|-----------------------------|


1.,2.,3.
G#5 C#5B5C#5
E S S S S S S S S S S E S S S S Q E H 4x
|-----------------------------|----------------||
|-----------------------------|---------------o||
|-----------------------------|-----6--4-6-----||
|-6---------------------6-----|-----6--4-6-----||
|-6---------------------6-----|-4-4-4--2-4----o||
|-4-4-4-4-4-4-4-4-4-4-4-4-4-4-|----------------||


4.
G#5 C#5 A5
E S S S S S S S S S S S S S S E S S S S S S E S S S S S S
|-------------------------------||--------------------------------------|
|-------------------------------||o-------------------------------------|
|-------------------------------||---6----------------------------------|
|-6-----------------------------||---6-----------------7----------------|
|-6-----------------------------||o--4--4-4--4-4--4-4--7----------------|
|-4-4-4-4-4-4-4-4-4-4-4-4-4-4-4-||---------------------5--5-5--5-5--5-5-|
|
| Gtr IV
| W E E E E E E E E
|-------------------------------||--------------------------------------|
|-------------------------------||o-------------------------------------|
|-------------------------------||--------------------------------------|
|-------------------------------||--11-13---14---16------13---14---13---|
|-------------------------------||o-------------------12----------------|
|-------------------------------||--------------------------------------|


B5 G#5
E S S S S S S E S S S S S S
|-----------------------------------------------||
|----------------------------------------------o||
|--4--------------------------------------------||
|--4-----------------6--------------------------||
|--2--2-2--2-2--2-2--6-------------------------o||
|--------------------4-----4--4--4--4--4--4-----||
|
| E E E E S S S S S S S S
|-----------------------------------------------||
|----------------------------------------------o||
|-----------------------------------------------||
|----13---14---16---18-19-18-16-14-16-14-13-----||
|-14-------------------------------------------o||
|-----------------------------------------------||


C#5 A5 B5 G#5
PM------------------------------------------------------------
e e e e e e e e e e e e e e e e
|-------------------------|-------------------------------------|
|-------------------------|-------------------------------------|
|--6--6--6--6-------------|--4--4--4--4-------------------------|
|--6--6--6--6--7--7--7--7-|--4--4--4--4--6-----6-----6-----6----|
|--4--4--4--4--7--7--7--7-|--2--2--2--2--6-----6-----6-----6----|
|--------------5--5--5--5-|--------------4-----4-----4-----4----|
|
| E E E E E E E E E E E E S S S S S S S S
|-------------------------|-------------------------------------|
|-------------------------|-------------------------------------|
|-------------------------|-------------------------------------|
|-11-13-14-16----13-14-13-|----13-14-16-18-19-18-16-14-16-14-13-|
|-------------12----------|-14----------------------------------|
|-------------------------|-------------------------------------|


C#5 A5 B5 G#5
---------------------------------------|
e e e e e e e e e e e e H
|-------------------------|--------------------|
|-------------------------|--------------------|
|--6--6--6--6-------------|--4--4--4--4--------|
|--6--6--6--6--7--7--7--7-|--4--4--4--4--6----|
|--4--4--4--4--7--7--7--7-|--2--2--2--2--6----|
|--------------5--5--5--5-|--------------4----|
|
| E E E E E E E E E E E E H
|-------------------------|--------------------|
|-------------------------|--------------------|
|-------------------------|--------------------|
|-11-13-14-16----13-14-13-|----13-14-16-18----|
|-------------12----------|-14-----------------|
|-------------------------|--------------------|


Bridge2
C#5 E5D#5 C#5 C#B5A5
E S S S S S S S S S S E E E S S S S S S E E Q
|---------------------------|----------------------|
|---------------------------|----------------------|
|-6---------------------9-8-|-6-------------6-4-2--|
|-6---------------------9-8-|-6-------------6-4-2--|
|-4-4-4-4-4-4-4-4-4-4-4-7-6-|-4-4-4-4-4-4-4-4-2-0--|
|---------------------------|----------------------|


C#5 E5D#5 C#5 C#B5A5
E S S S S S S S S S S E E E S S S S S S E E Q
|---------------------------|------------------------|
|---------------------------|------------------------|
|-6---------------------9-8-|-6-------------6-4-2----|
|-6---------------------9-8-|-6-------------6-4-2----|
|-4-4-4-4-4-4-4-4-4-4-4-7-6-|-4-4-4-4-4-4-4-4-2-0----|
|---------------------------|------------------------|


C#5 E5D#5 C#5 C#B5A5
E S S S S S S S S S S E E E S S S S S S E E Q
|---------------------------|----------------------|
|---------------------------|----------------------|
|-6---------------------9-8-|-6-------------6-4-2--|
|-6---------------------9-8-|-6-------------6-4-2--|
|-4-4-4-4-4-4-4-4-4-4-4-7-6-|-4-4-4-4-4-4-4-4-2-0--|
|---------------------------|----------------------|


C#5 E5D#5 C#5 C#B5A5 A5
E S S S S S S S S S S E E E S S S S S S E E Q +W
|---------------------------|----------------------|--------|
|---------------------------|----------------------|--------|
|-6---------------------9-8-|-6-------------6-4-2--|-(2)----|
|-6---------------------9-8-|-6-------------6-4-2--|-(2)----|
|-4-4-4-4-4-4-4-4-4-4-4-7-6-|-4-4-4-4-4-4-4-4-2-0--|-(0)----|
|---------------------------|----------------------|--------|


G#5 A5
E S S E S S E S S E S S E S S E S S E S S E S S
||--------------------------|-------------------------|
||o-------------------------|-------------------------|
||--------------------------|-------------------------|
||--6-----------------------|-7-----------------------|
||o-6-----------------------|-7-----------------------|
||--4-4-4-4-4-4-4-4-4-4-4-4-|-5-5-5-5-5-5-5-5-5-5-5-5-|


G#5 A5
E S S E S S E S S E S S E S S E S S E S S E S S
|-------------------------|---------------------------||
|-------------------------|--------------------------o||
|-------------------------|---------------------------||
|-6-----------------------|-7-------------------------||
|-6-----------------------|-7------------------------o||
|-4-4-4-4-4-4-4-4-4-4-4-4-|-5-5-5-5-5-5-5-5-5-5-5-5---||


G#5 A5
E S S E S S E S S E S S E S S E S S E S S E S S
||--------------------------|-------------------------|
||o-------------------------|-------------------------|
||--------------------------|-------------------------|
||--6-----------------------|-7-----------------------|
||o-6-----------------------|-7-----------------------|
||--4-4-4-4-4-4-4-4-4-4-4-4-|-5-5-5-5-5-5-5-5-5-5-5-5-|
|
| Gtr IV
| E S S E S S E S S E S S E S S E S S E S S E S S
||--------------------------|-------------------------|
||o-------------------------|-------------------------|
||----8-8-8-8-8-8-8-8-8-8-8-|---9-9-9-9-9-9-9-9-9-9-9-|
||--6-----------------------|-7-----------------------|
||o-------------------------|-------------------------|
||--------------------------|-------------------------|


G#5 A5
E S S E S S E S S E S S E S S E S S E S S E S S
|-------------------------|---------------------------||
|-------------------------|--------------------------o||
|-------------------------|---------------------------||
|-6-----------------------|-7-------------------------||
|-6-----------------------|-7------------------------o||
|-4-4-4-4-4-4-4-4-4-4-4-4-|-5-5-5-5-5-5-5-5-5-5-5-5---||
|
| E S S E S S E S S E S S E S S E S S E S S E S S
|-------------------------|---------------------------||
|-------------------------|--------------------------o||
|---8-8-8-8-8-8-8-8-8-8-8-|---9-9-9-9-9-9-9-9-9-9-9---||
|-6-----------------------|-7-------------------------||
|-------------------------|--------------------------o||
|-------------------------|---------------------------||


Solo5
C#5
E S S S S S S S S S S S S S S S S S S S S S S S S S S S S S S
|--------------------------------|------------------------------------|
|--------------------------------|------------------------------------|
|-6------------------------------|------------------------------------|
|-6------------------------------|------------------------------------|
|-4-4-4-4-4-4--4-4-4-4-4-4-4-4-4-|--4--4-4-4-4-4-4-4-4-4-4-4--4-4-4-4-|
|--------------------------------|------------------------------------|
|
| Q E Q. E E +Q E Q E S S E
|--------------------------------|------------------------------------|
|-5-----9---7----------------5---|-(5)-------9---7-------9---10-9-7---|
|-6-----9---8------------8---6---|-(6)-------9---8-------9---11-9-8---|
|------------------------9-------|------------------------------------|
|--------------------------------|------------------------------------|
|--------------------------------|------------------------------------|


B5
E S S S S S S S S S S S S S S S S S S S S S S S S S S S S S S
|--------------------------------|----------------------------------------|
|--------------------------------|----------------------------------------|
|-4------------------------------|----------------------------------------|
|-4------------------------------|----------------------------------------|
|-2-2-2-2-2-2--2-2-2-2-2-2-2-2-2-|--2--2-2-2-2-2-2-2-2-2-2-2---2-2-2-2----|
|--------------------------------|----------------------------------------|
|
| Q E Q. E E +Q E Q E Q
|--------------------------------|----------------------------------------|
|-5-----9---7----------------5---|-(5)-------9---7-------9----12----------|
|-6-----9---8------------8---6---|-(6)-------9---8-------9---/12----------|
|------------------------9-------|----------------------------------------|
|--------------------------------|----------------------------------------|
|--------------------------------|----------------------------------------|


A5
E S S S S S S S S S S S S S S S S S S S S S S S S S S S S S S
|--------------------------------|------------------------------------|
|--------------------------------|------------------------------------|
|-2------------------------------|------------------------------------|
|-2------------------------------|------------------------------------|
|-0-0-0-0-0-0--0-0-0-0-0-0-0-0-0-|--0--0-0-0-0-0-0-0-0-0-0-0--0-0-0-0-|
|--------------------------------|------------------------------------|
|
| Q E Q. E E +Q E Q E S S E
|--------------------------------|------------------------------------|
|-5-----9---7----------------5---|-(5)-------9---7-------9---10-9-7---|
|-6-----9---8------------8---6---|-(6)-------9---8-------9---11-9-8---|
|------------------------9-------|------------------------------------|
|--------------------------------|------------------------------------|
|--------------------------------|------------------------------------|


B5
E S S S S S S S S S S S S S S S S S S S S S S S S S S S S S S
|--------------------------------|----------------------------------------|
|--------------------------------|----------------------------------------|
|-4------------------------------|----------------------------------------|
|-4------------------------------|----------------------------------------|
|-2-2-2-2-2-2--2-2-2-2-2-2-2-2-2-|--2--2-2-2-2-2-2-2-2-2-2-2---2-2-2-2----|
|--------------------------------|----------------------------------------|
|
| Q E Q. E E +Q E Q E Q
|--------------------------------|----------------------------------------|
|-5-----9---7----------------5---|-(5)-------9---7-------9----------------|
|-6-----9---8------------8---6---|-(6)-------9---8-------9---/12----------|
|------------------------9-------|----------------------------------------|
|--------------------------------|----------------------------------------|
|--------------------------------|----------------------------------------|


C#5
E S S S S S S S S S S S S S S S S S S S S S S S S S S S S S S
|--------------------------------|------------------------------------|
|--------------------------------|------------------------------------|
|-6------------------------------|------------------------------------|
|-6------------------------------|------------------------------------|
|-4-4-4-4-4-4--4-4-4-4-4-4-4-4-4-|--4--4-4-4-4-4-4-4-4-4-4-4--4-4-4-4-|
|--------------------------------|------------------------------------|
|
| Q E Q. E E +Q E Q E S S E
|--------------------------------|------------------------------------|
|-5-----9---7----------------5---|-(5)-------9---7-------9---10-9-7---|
|-6-----9---8------------8---6---|-(6)-------9---8-------9---11-9-8---|
|------------------------9-------|------------------------------------|
|--------------------------------|------------------------------------|
|--------------------------------|------------------------------------|


B5
E S S S S S S S S S S S S S S S S S S S S S S S S S S S S S S
|--------------------------------|----------------------------------------|
|--------------------------------|----------------------------------------|
|-4------------------------------|----------------------------------------|
|-4------------------------------|----------------------------------------|
|-2-2-2-2-2-2--2-2-2-2-2-2-2-2-2-|--2--2-2-2-2-2-2-2-2-2-2-2---2-2-2-2----|
|--------------------------------|----------------------------------------|
|
| Q E Q. E E +Q E Q E Q
|--------------------------------|----------------------------------------|
|-5-----9---7----------------5---|-(5)-------9---7-------9----------------|
|-6-----9---8------------8---6---|-(6)-------9---8-------9---/12----------|
|------------------------9-------|----------------------------------------|
|--------------------------------|----------------------------------------|
|--------------------------------|----------------------------------------|


A5
E S S S S S S S S S S S S S S S S S S S S S S S S S S S S S S
|--------------------------------|------------------------------------|
|--------------------------------|------------------------------------|
|-2------------------------------|------------------------------------|
|-2------------------------------|------------------------------------|
|-0-0-0-0-0-0--0-0-0-0-0-0-0-0-0-|--0--0-0-0-0-0-0-0-0-0-0-0--0-0-0-0-|
|--------------------------------|------------------------------------|
|
| Q E Q. E E +Q E Q E S S E
|--------------------------------|------------------------------------|
|-5-----9---7----------------5---|-(5)-------9---7-------9---10-9-7---|
|-6-----9---8------------8---6---|-(6)-------9---8-------9---11-9-8---|
|------------------------9-------|------------------------------------|
|--------------------------------|------------------------------------|
|--------------------------------|------------------------------------|


B5
E S S S S S S S S S S S S S S S S S S S S S S S S S S S S S S
|--------------------------------|--------------------------------------------------|
|--------------------------------|--------------------------------------------------|
|-4------------------------------|--------------------------------------------------|
|-4------------------------------|--------------------------------------------------|
|-2-2-2-2-2-2--2-2-2-2-2-2-2-2-2-|--2--2-2-2--2--2--2--2--2--2--2--2--2--2--2--2----|
|--------------------------------|--------------------------------------------------|
|
| Q E Q. E E +Q S S S S S S S S S S S S
|--------------------------------|--------------------------------------------------|
|-5-----9---7----------------5---|-(5)-------12-14-12-14-12-14-12-14-12-14-12-14----|
|-6-----9---8------------8---6---|-(6)----------------------------------------------|
|------------------------9-------|--------------------------------------------------|
|--------------------------------|--------------------------------------------------|
|--------------------------------|--------------------------------------------------|


Chorus
C#5
E S S S S S S S S S S S S S S S S S S S S S S S S S S S S S S
|-------------------------------|---------------------------------|
|-------------------------------|---------------------------------|
|-6-----------------------------|---------------------------------|
|-6-----------------------------|---------------------------------|
|-4-4-4-4-4-4-4-4-4-4-4-4-4-4-4-|-4-4-4-4-4-4-4-4-4-4-4-4-4-4-4-4-|
|-------------------------------|---------------------------------|


B5
E S S S S S S S S S S S S S S E S S S S E S S S S E S S
|-------------------------------|---------------------------|
|-------------------------------|---------------------------|
|-4-----------------------------|-4---------4---------4-----|
|-4-----------------------------|-4---------4---------4-----|
|-2-2-2-2-2-2-2-2-2-2-2-2-2-2-2-|-2-2-2-2-2-2-2-2-2-2-2-2-2-|
|-------------------------------|---------------------------|


A5
E S S S S E E S S S S E E S S S S E E S S S S E
|-------------------------|-------------------------|
|-------------------------|-------------------------|
|-2---------2-2-----------|-2---------2-2-----------|
|-2---------2-2---------2-|-2---------2-2---------2-|
|-0-0-0-0-0-0-0-0-0-0-0-0-|-0-0-0-0-0-0-0-0-0-0-0-0-|
|-------------------------|-------------------------|


G#5 A5 B5
E S S S S S S S S S S S S S S E S S S S S S E S S S S S S
|-------------------------------|------------------------------|
|-------------------------------|------------------------------|
|-------------------------------|-2-------------4--------------|
|-6-----------------------------|-2-------------4--------------|
|-6---------6-------------------|-0-0-0-0-0-0-0-2-2-2-2-2-2-2--|
|-4-4-4-4-4-4-4-4-4-4-4-4-4-4-4-|------------------------------|


C#5
E S S S S S S S S S S S S S S S S S S S S S S S S S S S S S S
|-------------------------------|---------------------------------|
|-------------------------------|---------------------------------|
|-6-----------------------------|---------------------------------|
|-6-----------------------------|---------------------------------|
|-4-4-4-4-4-4-4-4-4-4-4-4-4-4-4-|-4-4-4-4-4-4-4-4-4-4-4-4-4-4-4-4-|
|-------------------------------|---------------------------------|


B5
E S S S S S S S S S S S S S S E S S S S E S S S S E S S
|-------------------------------|---------------------------|
|-------------------------------|---------------------------|
|-4-----------------------------|-4---------4---------4-----|
|-4-----------------------------|-4---------4---------4-----|
|-2-2-2-2-2-2-2-2-2-2-2-2-2-2-2-|-2-2-2-2-2-2-2-2-2-2-2-2-2-|
|-------------------------------|---------------------------|


A5
E S S S S E E S S S S E E S S S S E E S S S S E
|-------------------------|-------------------------|
|-------------------------|-------------------------|
|-2---------2-2-----------|-2---------2-2-----------|
|-2---------2-2---------2-|-2---------2-2---------2-|
|-0-0-0-0-0-0-0-0-0-0-0-0-|-0-0-0-0-0-0-0-0-0-0-0-0-|
|-------------------------|-------------------------|


G#5 A5 B5
E S S S S S S S S S S S S S S E S S S S S S E S S S S S S
|-------------------------------|------------------------------|
|-------------------------------|------------------------------|
|-------------------------------|-2-------------4--------------|
|-6-----------------------------|-2-------------4--------------|
|-6---------6-------------------|-0-0-0-0-0-0-0-2-2-2-2-2-2-2--|
|-4-4-4-4-4-4-4-4-4-4-4-4-4-4-4-|------------------------------|


Outro
C#5
E S S S S S S S S S S S S S S S S S S S S S S S S S S S S S S
|---------------------------------------|-----------------------------------------|
|---------------------------------------|-----------------------------------------|
|--6------------------------------------|-----------------------------------------|
|--6------------------------------------|-----------------------------------------|
|--4--4-4--4-4--4-4--4-4--4-4--4-4--4-4-|--4-4--4-4--4-4--4-4--4-4--4-4--4-4--4-4-|
|---------------------------------------|-----------------------------------------|
|
| Gtr IV
| E E E E E E E E E E E E E E E E
|---------------------------------------|-----------------------------------------|
|---------------------------------------|-----------------------------------------|
|---------------------------------------|----------------11-----------------------|
|-11-13---14---13---11---13---14---13---|------13---14--------14---13---11---13---|
|---------------------------------------|-12--------------------------------------|
|---------------------------------------|-----------------------------------------|


B5
E S S S S S S S S S S S S S S E S S S S E S S S S E S S
|--------------------------------------|-----------------------------------------|
|--------------------------------------|-----------------------------------------|
|--4-----------------------------------|--4----------------4----------4----------|
|--4-----------------------------------|--4----------------4----------4----------|
|--2--2-2--2-2--2-2--2-2--2-2--2-2-2-2-|--2-----2--2--2-2--2-2-2--2-2-2---2-2----|
|--------------------------------------|-----------------------------------------|
|
| E E E E E E Q S S S S E E E E S S S S
|--------------------------------------|-----------------------------------------|
|--------------------------------------|-----------------------------------------|
|--------------11----------------------|-14-13-14-13-11---13-9---11---8-9-8-9----|
|----13---14--------14---13---11-------|-----------------------------------------|
|-14-----------------------------------|-----------------------------------------|
|--------------------------------------|-----------------------------------------|


A5
E S S S S E E S S S S E E S S S S E E S S S S E
|---------------------------------|---------------------------------|
|---------------------------------|---------------------------------|
|--2------------2--2--------------|--2------------2--2--------------|
|--2------------2--2------------2-|--2------------2--2------------2-|
|--0--0-0--0-0--0--0--0-0--0-0--0-|--0--0-0--0-0--0--0--0-0--0-0--0-|
|---------------------------------|---------------------------------|
|
| E E E E E E E E E E E E E E E E
|---------------------------------|---------------------------------|
|---------------------------------|---------------------------------|
|---------------------------------|--------------11-----------------|
|-11-13---14---13-11-13---14---13-|----13---14------14-13---11---13-|
|---------------------------------|-12------------------------------|
|---------------------------------|---------------------------------|


G#5 A5 B5 C#5
E S S S S S S S S S S S S S S E S S S S S S E S S S S S S Q Q H
|--------------------------------------|--------------------------------------|-------------*|
|--------------------------------------|--------------------------------------|-------------*|
|--------------------------------------|--2--------------------4--------------|-6----------*|
|--6-----------------------------------|--2--------------------4--------------|-6----------*|
|--6------------6----------------------|--0-----0--0--0-0--0-0-2--2-2-2-2-2-2-|-4----------*|
|--4--4-4--4-4--4-4--4-4--4-4--4-4-4-4-|--------------------------------------|-------------*|
|
| E E E E E E Q S S S S E E E E S S S S Q Q H
|--------------------------------------|--------------------------------------|-------------*|
|--------------------------------------|--------------------------------------|-------------*|
|--------------11----------------------|-14-13-14-13-11---13---9-11---8-9-8-9-|-6----------*|
|----13---14--------14---13---11-------|--------------------------------------|-------------*|
|-14-----------------------------------|--------------------------------------|-------------*|
|--------------------------------------|--------------------------------------|-------------*|




--------------------------------------------------------------------------------


Duration Legend
---------------
W - whole; H - half; Q - quarter; E - 8th; S - 16th; T - 32nd; X - 64th; a - acciaccatura
+ - note tied to previous; . - note dotted; .. - note double dotted
Uncapitalized letters represent notes that are staccato (1/2 duration)
Irregular groupings are notated above the duration line
Duration letters will always appear directly above the note/fret number it represents the
duration for. Duration letters with no fret number below them represent rests. Multi-
bar rests are notated in the form Wxn, where n is the number of bars to rest for. Low
melody durations appear below the staff

Tablature Legend
----------------
h - hammer-on
p - pull-off
b - bend
pb - pre-bend
r - bend release (if no number after the r, then release immediately)
/ - slide into or out of (from/to "nowhere")
s - legato slide
S - shift slide
- natural harmonic
[n] - artificial harmonic
n(n) - tapped harmonic
~ - vibrato
tr - trill
T - tap
TP - trem. picking
PM - palm muting
n/ - tremolo bar dip; n = amount to dip
n - tremolo bar down
n/ - tremolo bar up
/n - tremolo bar inverted dip
= - hold bend; also acts as connecting device for hammers/pulls
<> - volume swell (louder/softer)
x - on rhythm slash represents muted slash
o - on rhythm slash represents single note slash

Misc Legend
-----------
| - bar
|| - double bar
||o - repeat start
o|| - repeat end
*| - double bar (ending)
: - bar (freetime)
$ - Segno
& - Coda
Tempo markers - = BPM(8/16=s8/s16), where s8 = swing 8ths, s16 = swing 16ths

-----------------------------
|  , ,   |
|     http://akords.org     |
-----------------------------

 (: 0)
    :
  • Black Chamber
  • Into The Storm
  • Run For The Night
  • Weird Dreams
  • Born In A Mourning Hall
  •  
    , . '.

    ':*
    E-Mail:*
    :
    , : *
     
      

    BLIBL-