|  
 
:  
  : :  
      ?    

  |

akords.org » B » Blind Guardian » Legions

Blind Guardian - Legions 

LEGIONS

Note! Guitars tuned 1/2 step down

h = Hammer-On
p = Pull-Off
p.m. = Palm Muting
/ = Slide
~ = Vibrato

Intro:
p.m...... p.m..... p.m...... p.m.... p.m.....
Eb||-----------------------------|-----------------------------|
Bb||-----------------------------|-----------------------------|
Gb||-----------------------------|-----------------------------|
Db||---------4-------------------|-----------------------------|
Ab||-------------------4---------|-5---------2---------4-5-4-2-|
Eb||-2-2-2-2---2-2-2-2---2-2-2-2-|---2-2-2-2---2-2-2-2---------|

1st time 2nd time
p.m.. p.m. p.m.... p.m....
Eb|-----------------------------|----------------||--------------------||
Bb|-----------------------------|----------------||--------------------||
Gb|-----------------------------|----------------||--------------------||
Db|---------4-------------------|-7---7-6-4------||-7---7-7-/-9-9------||
Ab|-2-----------------4---------|-5---------7-5~-||-5---5-5-/-7-7------||
Eb|---2-2-2---2-2-2-2---2-2-2-2-|----------------||--------------------||



Intro Fill:
faster.......................
Eb|-----||---------------------------12-13-14----------12-13-14-----------|
Bb|-----||----------12-14-15-12-14-15---------12-14-15----------14-15-17--|
Gb|-----||-11-13-14-------------------------------------------------------|
Db|-7---||----------------------------------------------------------------|
Ab|-5---||----------------------------------------------------------------|
Eb|-----||----------------------------------------------------------------|

...............................
Eb|-13-14-16----------14-16-17-19-||
Bb|----------15-17-18-------------||
Gb|-------------------------------||
Db|-------------------------------||
Ab|-------------------------------||
Eb|-------------------------------||


1st verse:

Far in the core of the earth
First it was given birth p.m.........
Eb||-------------|-------------|--------|-----------------||
Bb||-------------|-------------|--------|-----------------||
Gb||-------------|-------------|--------|-----------------||
Db||-------------|-------------|--------|-7---------------||
Ab||-4-----------|-2-----------|-4------|-5---7-5-4-------||
Eb||-2-----------|-0-----------|-2------|-----------7-5-4-||


We heard the call the message was so dear The tracks we're
Eb|--------------|------------------|-------------|-----|------------------|
Bb|--------------|------------------|-------------|-----|------------------|
Gb|--------------|------------------|-------------|-----|------------------|
Db|-2------------|------------------|-------------|-----|-4----------------|
Ab|-0------------|------------------|-2-----------|-----|-2----------------|
Eb|--------------|------------------|-0-----------|-----|------------------|


laid for the future to come
p.m.................................
Eb|-----------------------|------------------|------------------|
Bb|-----------------------|------------------|------------------|
Gb|-----------------------|------------------|------------------|
Db|-----------------------|-6----------------|------------------|
Ab|-----------------------|-4-444-444-444-44-|-4-442-22---------|
Eb|-----------------------|------------------|---------5-554-44-|


Sons and daughters of the Rising Sun
The armies in Europe here we come
We run like the wind we play from the heart
Now we are here together we sing



chorus:


Faster than light higher than the sky to - night we're together a -
never give up and never give in
Eb|------------------|------------------------|---------------------------|
Bb|------------------|------------------------|---------------------------|
Gb|------------------|------------------------|---------------------------|
Db|------------------|-2----------------------|---------------------------|
Ab|-4----------------|-0----------------------|-2-------------------------|
Eb|-2----------------|------------------------|-0-------------------------|


gain We
Stronger than steel we're the Legions of the Twilight
Eb|--------------||-----------------------------|------------------|--------|
Bb|--------------||-----------------------------|------------------|--------|
Gb|--------------||-----------------------------|------------------|-Intro--|
Db|-7---6--------||-7---------------------------|------------------|--------|
Ab|-5---4--------||-5---------------------------|-4-442-22---------|--------|
Eb|--------------||-----------------------------|---------5-554-44-|--------|



2nd verse:

We survived the hard times
Never accepted the lies
You run like the wind you sing from the heart
Now that we're here together we sing



chorus


guitar solo


birdge:


When we have to go back home a gain
We'll keep the mem'ries we gained in side our
Eb||--------|--------|---------|---------|-------|--------||-------|
Bb||--------|--------|---------|---------|-------|--------||-------|
Gb||--------|--------|---------|---------|-------|--------||-------|
Db||-2------|--------|---------|---------|-4-----|--------||-2-----|
Ab||-0------|--------|-2-------|---------|-2-----|--------||-0-----|
Eb||--------|--------|-0-------|---------|-------|--------||-------|


p.m...................................
p.m.............. hearts repeat 4 times
Eb|------------------||------------------|-------------------||
Bb|------------------||------------------|-------------------||
Gb|------------------||------------------|-------------------||
Db|------------------||------------------|-------------------||
Ab|-7-775-554-442-22-||-4-444-444-444-44-|-4-44-2-220-00-----||
Eb|------------------||------------------|--------------4-44-||


chorus

-----------------------------
|  , ,   |
|     http://akords.org     |
-----------------------------

 (: 0)
    :
  • Shadow Of The Wind
  • Time To Break Up
  • Im Only Sleeping 6
  • Ill Be Back
  • Dont Bother Me
  •  
    , . '.

    ':*
    E-Mail:*
    :
    , : *
     
      

    BLIBL-