|  
 
:  
  : :  
      ?    

  |

akords.org » B » Blind Guardian » Into The Storm

Blind Guardian - Into The Storm 2

#----------------------------------PLEASE NOTE---------------------------------#
#This file is the author's own work and represents their interpretation of the #
#song. You may only use this file for private study, scholarship, or research. #
#------------------------------------------------------------------------------#

INTO THE STORM
As recorded by Blind Guardian
(From the 1999 Album NIGHTFALL IN MIDDLE EARTH)

Transcribed by Drimascus_God_Of_Thunder


Words and Music by Blind Guardian

Gtr I (Eb Ab Db Gb Bb Eb) - 'Markus'
Gtr II (Eb Ab Db Gb Bb Eb) - 'Andr'
Gtr III (Eb Ab Db Gb Bb Eb) - 'Andr2'

Intro
Q=196
N.C.
4/4
Gtrs I, II
PM| PM| PM| PM-|
E E E E E E E E E E E E E E a Q Q. Q. Q Q. Q. Q
|-----------------|--------------------|----------------|---------------|
|-----------------|--------------------|-10---------10--|-9-------------|
|-----7-----5-----|-8p7-(7)---7p5------|-------7--------|------7----5---|
|-0-0---0-0---0-0-|------0--0-----6S7--|----------------|---------------|
|-----------------|--------------------|----------------|---------------|
|-----------------|--------------------|----------------|---------------|


N.C.
PM| PM| PM| PM-|
E E E E E E E E E E E E E E a Q
|-----------------|--------------------|
|-----------------|--------------------|
|-----7-----5-----|-8p7-(7)---7p5------|
|-0-0---0-0---0-0-|------0--0-----6S7--|
|-----------------|--------------------|
|-----------------|--------------------|


PM| PM| PM| PM-|
E E E E E E E E E E E E E E a Q
|-----------------|----------------------|
|-----------------|----------------------|
|-----7-----5-----|-8p7-(7)---7p5--------|
|-0-0---0-0---0-0-|------0--0-----6S7----|
|-----------------|----------------------|
|-----------------|----------------------|


D5 C5
Gtr II
Q. Q. Q Q. Q. Q
|--------------------|------------------|
|--------------------|------------------|
|--14-----------14---|--14--------------|
|--------12----------|--------12----10--|
|--------------------|------------------|
|--------------------|------------------|
|
| Gtr III
| Q. Q. Q Q. Q. Q
|--------------------|------------------|
|--------------------|------------------|
|-[14]---------[14]--|-[14]-------------|
|--------12----------|--------12----10--|
|--------------------|------------------|
|--------------------|------------------|
|
| Gtr I
| W W
|--------------------|------------------|
|--------------------|------------------|
|---7----------------|---5--------------|
|---7----------------|---5--------------|
|---5----------------|---3--------------|
|--------------------|------------------|


D5
~~~
E +E +E +E +E +E +E +E H. +Q
|---------------------------------------------------|-----------------|
|---------------------------------------------------|-----------------|
|---------------------------------------------------|-----------------|
|-12-(12)b13r(12)-(12)b13r(12)-(12)b13r(12)-(12)b13r|=12-------(12)--|
|---------------------------------------------------|-----------------|
|---------------------------------------------------|-----------------|
|
| ~~~
| E +E +E +E +E +E +E +E H. +Q
|---------------------------------------------------|-----------------|
|---------------------------------------------------|-----------------|
|-10-(10)b11r(10)-(10)b11r(10)-(10)b11r(10)-(10)b11r|=10-------(10)--|
|---------------------------------------------------|-----------------|
|---------------------------------------------------|-----------------|
|---------------------------------------------------|-----------------|
|
| PM---------------------------------------|
| E E E E E E E E W
|---------------------------------------------------|-----------------|
|---------------------------------------------------|-----------------|
|---------------------------------------------------|--7--------------|
|---------------------------------------------------|--7--------------|
|--5---5-------5----5-------5----5-------5----5-----|--5--------------|
|---------------------------------------------------|-----------------|


Verse
D5 D5
Gtr II
PM PM PM PM
Q Q E Q E Q E Q. Q Q Q E Q E Q E Q. Q
|------------------|------------------|------------------|------------------|
|------------------|----------6----5--|------------------|----------6----5--|
|----7--(7)-5--(5)-|--3---(3)-7----5--|----7--(7)-5--(5)-|--3---(3)-7----5--|
|-------(0)----(0)-|------(0)---------|-------(0)----(0)-|------(0)---------|
|------------------|------------------|------------------|------------------|
|------------------|------------------|------------------|------------------|
|
| Gtr I
| W +W W +W
|------------------|------------------|------------------|------------------|
|------------------|------------------|------------------|------------------|
|-7----------------|-(7)--------------|-7----------------|-(7)--------------|
|-7----------------|-(7)--------------|-7----------------|-(7)--------------|
|-5----------------|-(5)--------------|-5----------------|-(5)--------------|
|------------------|------------------|------------------|------------------|


D5
PM PM
Q Q E Q E Q E Q. Q
|---------------------|--------------------|
|---------------------|---------6------5---|
|-----7---(7)-5---(5)-|-3---(3)-7------5---|
|---------(0)-----(0)-|-----(0)------------|
|---------------------|--------------------|
|---------------------|--------------------|
|
| PM----------------------------------------
| E E E E E E E E E E E E E E E E
|---------------------|--------------------|
|---------------------|--------------------|
|---------------------|--------------------|
|-0-0-0-0--0--0-0--0--|-0-0--0--0--0-0-0-0-|
|---------------------|--------------------|
|---------------------|--------------------|


D5
PM PM
Q Q E Q E Q E Q. Q
|---------------------|--------------------|
|---------------------|---------6------5---|
|-----7---(7)-5---(5)-|-3---(3)-7------5---|
|---------(0)-----(0)-|-----(0)------------|
|---------------------|--------------------|
|---------------------|--------------------|
|
|----------------------------------------|
| E E E E E E E E E E E E E E E E
|---------------------|--------------------|
|---------------------|--------------------|
|---------------------|--------------------|
|-0-0-0-0--0--0-0--0--|-0-0--0--0--0-0-0-0-|
|---------------------|--------------------|
|---------------------|--------------------|


E5
PM PM
Q Q E Q E Q E Q. Q
||-------------------|------------------|
||o------------------|----------8----7--|
||-----9--(9)-7--(7)-|--5---(5)-9----7--|
||-------------------|------------------|
||o------------------|------------------|
||--------(0)----(0)-|------(0)---------|
|
| W +W
||-------------------|------------------|
||o------------------|------------------|
||-------------------|------------------|
||--2----------------|-(2)--------------|
||o-2----------------|-(2)--------------|
||--0----------------|-(0)--------------|


E5
PM PM
Q Q E Q E Q E Q. Q
|------------------|--------------------||
|------------------|----------8----7---o||
|----9--(9)-7--(7)-|--5---(5)-9----7----||
|------------------|--------------------||
|------------------|-------------------o||
|-------(0)----(0)-|------(0)-----------||
|
| W +W
|------------------|--------------------||
|------------------|-------------------o||
|------------------|--------------------||
|-2----------------|-(2)----------------||
|-2----------------|-(2)---------------o||
|-0----------------|-(0)----------------||


Pre-Chorus
$
C5 A5
Q Q. Q. Q. Q. Q Q Q. Q.
|---------------|----------------|---------------|
|---------------|-------8----7--|---------------|
|----/9----7----|--5-------------|----/9----7----|
|---------------|----------------|---------------|
|---------------|----------------|---------------|
|---------------|----------------|---------------|
|
| W +W W
|---------------|----------------|---------------|
|---------------|----------------|---------------|
|-5-------------|-(5)------------|-2-------------|
|-5-------------|-(5)------------|-2-------------|
|-3-------------|-(3)------------|-0-------------|
|---------------|----------------|---------------|


E5
Q. Q. Q Q. Q. Q Q. Q. Q
|----------------|---------------------|---------------------|
|-------8----7--|-12-------------12---|-11------------------|
|--6-------------|---------9-----------|---------9------7----|
|----------------|---------------------|---------------------|
|----------------|---------------------|---------------------|
|----------------|---------------------|---------------------|
|
| PM------------------------------------|
| +W E E E E E E E E E E E E E E E E
|----------------|---------------------|---------------------|
|----------------|---------------------|---------------------|
|-(2)------------|---------------------|---------------------|
|-(2)------------|---------------------|---------------------|
|-(0)------------|---------------------|---------------------|
|----------------|--0--0-0-0--0-0--0-0-|--0--0-0-0--0-0-0-0--|


Chorus
C5 D5 E5
W W E E H E E E E Q H
||-----------|----------|-----------------|-----------------|
||o----------|----------|-8-10-12----8-10-|-12--10-12-------|
||-----------|----------|-9-11-12----9-11-|-12--11-12-------|
||-----------|----------|-----------------|-----------------|
||o----------|----------|-----------------|-----------------|
||-----------|----------|-----------------|-----------------|
|
| W W W +W
||-----------|----------|-----------------|-----------------|
||o----------|----------|-----------------|-----------------|
||--5--------|-7--------|-9---------------|-(9)-------------|
||--5--------|-7--------|-9---------------|-(9)-------------|
||o-3--------|-5--------|-7---------------|-(7)-------------|
||-----------|----------|-0---------------|-(0)-------------|


To Coda
C5 D5 A5 A5
W W W W W W
|----------|----------|----------|-------------||------------|---------|
|----------|----------|----------|------------o||------------|---------|
|----------|----------|----------|-------------||------------|---------|
|----------|----------|----------|-------------||------------|---------|
|----------|----------|----------|------------o||------------|---------|
|----------|----------|----------|-------------||------------|---------|
|
| W W W +W +W +W
|----------|----------|----------|-------------||------------|---------|
|----------|----------|----------|------------o||------------|---------|
|-5--------|-7--------|-2--------|-(2)---------||-(2)--------|-(2)-----|
|-5--------|-7--------|-2--------|-(2)---------||-(2)--------|-(2)-----|
|-3--------|-5--------|-0--------|-(0)--------o||-(0)--------|-(0)-----|
|----------|----------|----------|-------------||------------|---------|


Bridge
N.C.
Gtr II
Q E E E E Q E E E E E S S E E
||------------------------|--------------------------------|
||o-----------------------|--------------------------------|
||------------------------|--------------------------------|
||---------------5--4--5--|------------------5--4--5--4----|
||o--7--------------------|------------------------------5-|
||-------0---0------------|--0---0---0---0-----------------|
|
| Gtr I
| Q E E E E Q E E E E E S S E E
||------------------------|--------------------------------|
||o-----------------------|--------------------------------|
||--------------12-11-12--|-----------------12-11-12-11----|
||--14--------------------|-----------------------------12-|
||o-----------------------|--------------------------------|
||------(0)-(0)-----------|-(0)-(0)-(0)-(0)----------------|


N.C.
Q E E E E Q E E E E E S S E E
|-----------------------|----------------------------------||
|-----------------------|---------------------------------o||
|-----------------------|----------------------------------||
|--------------5--4--5--|------------------5--4--5--4------||
|--7--------------------|------------------------------5--o||
|------0---0------------|--0---0---0---0-------------------||
|
| Q E E E E Q E E E E E S S E E
|-----------------------|----------------------------------||
|-----------------------|---------------------------------o||
|-------------12-11-12--|-----------------12-11-12-11------||
|-14--------------------|-----------------------------12---||
|-----------------------|---------------------------------o||
|-----(0)-(0)-----------|-(0)-(0)-(0)-(0)------------------||


Verse 2
E5
Gtr II
PM PM
Q Q E Q E Q E Q. Q
||-------------------|------------------|
||o------------------|----------8----7--|
||-----9--(9)-7--(7)-|--5---(5)-9----7--|
||-------------------|------------------|
||o------------------|------------------|
||--------(0)----(0)-|------(0)---------|
|
| Gtr I
| W +W
||-------------------|------------------|
||o------------------|------------------|
||-------------------|------------------|
||--2----------------|-(2)--------------|
||o-2----------------|-(2)--------------|
||--0----------------|-(0)--------------|


E5
PM PM
Q Q E Q E Q E Q. Q
|------------------|--------------------||
|------------------|----------8----7---o||
|----9--(9)-7--(7)-|--5---(5)-9----7----||
|------------------|--------------------||
|------------------|-------------------o||
|-------(0)----(0)-|------(0)-----------||
|
| W +W
|------------------|--------------------||
|------------------|-------------------o||
|------------------|--------------------||
|-2----------------|-(2)----------------||
|-2----------------|-(2)---------------o||
|-0----------------|-(0)----------------||


F#5
PM PM
Q Q E Q E Q E Q. Q
||------------------------|--------------------|
||o-----------------------|---------10------9--|
||------11---(11)-9---(9)-|-7---(7)-11------9--|
||------------------------|--------------------|
||o-----------------------|--------------------|
||-------------x-------x--|------x-------------|
|
| E E E E E E E E E E E E E E Q
||------------------------|--------------------|
||o-----------------------|--------------------|
||------------------------|--------------------|
||------------------------|--------------------|
||o-----------------------|--------------------|
||--2-2--2-2---2--2-2--2--|-2-2--2---2--2-2-0--|


F#5
PM PM
Q Q E Q E Q E Q. Q
|-----------------------|----------------------||
|-----------------------|---------10------9---o||
|-----11---(11)-9---(9)-|-7---(7)-11------9----||
|-----------------------|----------------------||
|-----------------------|---------------------o||
|------------x-------x--|------x---------------||
|
| E E E E E E E E E E E E E E Q
|-----------------------|----------------------||
|-----------------------|---------------------o||
|-----------------------|----------------------||
|-----------------------|----------------------||
|-----------------------|---------------------o||
|-2-2--2-2---2--2-2--2--|-2-2--2---2--2-2-0----||


D5
PM| PM| PM| PM-|
E E E E E E E E E E E E E E a Q
|-----------------|-----------------------|
|-----------------|-----------------------|
|-----7-----5-----|--8p=7-(7)---7-5------|
|-0-0---0-0---0-0-|--------0--0------6S7--|
|-----------------|-----------------------|
|-----------------|-----------------------|
|
| W +W
|-----------------|-----------------------|
|-----------------|-----------------------|
|-7---------------|-(7)-------------------|
|-7---------------|-(7)-------------------|
|-5---------------|-(5)-------------------|
|-----------------|-----------------------|


D5 D5
PM| PM| PM| PM-|
E E E E E E E E E E E E E E a Q
|-----------------|-----------------------|
|-----------------|-----------------------|
|-----7-----5-----|-8p7-(7)---7-5--------|
|-0-0---0-0---0-0-|------0--0------6S7----|
|-----------------|-----------------------|
|-----------------|-----------------------|
|
| q q H W
|-----------------|-----------------------|
|-----------------|-----------------------|
|-7---7-----------|-----------------------|
|-7---7-----------|-----------------------|
|-5---5-----------|-----------------------|
|-----------------|-----------------------|


D5
PM| PM| PM| PM-|
E E E E E E E E E E E E E E a Q
|-----------------|---------------------|
|-----------------|---------------------|
|-----7-----5-----|-8p7-(7)---7-5------|
|-0-0---0-0---0-0-|------0--0------6S7--|
|-----------------|---------------------|
|-----------------|---------------------|
|
| W W
|-----------------|---------------------|
|-----------------|---------------------|
|-----------------|---------------------|
|-----------------|---------------------|
|-----------------|---------------------|
|-----------------|---------------------|


D5
PM| PM| PM| PM-|
E E E E E E E E E E E E E E a Q
|-----------------|-----------------------|
|-----------------|-----------------------|
|-----7-----5-----|-8p7-(7)---7-5--------|
|-0-0---0-0---0-0-|------0--0------6S7----|
|-----------------|-----------------------|
|-----------------|-----------------------|
|
| W W
|-----------------|-----------------------|
|-----------------|-----------------------|
|-----------------|-----------------------|
|-----------------|-----------------------|
|-----------------|-----------------------|
|-----------------|-----------------------|


E5 E5
PM PM PM PM
Q Q E Q E Q E Q. Q Q Q E Q E
||-------------------|------------------|------------------|
||o------------------|----------8----7--|------------------|
||-----9--(9)-7--(7)-|--5---(5)-9----7--|----9--(9)-7--(7)-|
||-------------------|------------------|------------------|
||o------------------|------------------|------------------|
||--------(0)----(0)-|------(0)---------|-------(0)----(0)-|
|
| W +W W
||-------------------|------------------|------------------|
||o------------------|------------------|------------------|
||-------------------|------------------|------------------|
||--2----------------|-(2)--------------|-2----------------|
||o-2----------------|-(2)--------------|-2----------------|
||--0----------------|-(0)--------------|-0----------------|


1. 2.
D.S. al Coda
Q E Q. Q Q E Q. Q
|-------------------||--------------------|
|----------8----7--o||----------8----7----|
|--5---(5)-9----7---||--5---(5)-9----7----|
|-------------------||--------------------|
|------------------o||--------------------|
|------(0)----------||------(0)-----------|
|
| +W +W
|-------------------||--------------------|
|------------------o||--------------------|
|-------------------||--------------------|
|-(2)---------------||-(2)----------------|
|-(2)--------------o||-(2)----------------|
|-(0)---------------||-(0)----------------|


Solo Andr
&
E5
Gtr I
PM-------------------------------------|
E E E E E E E E E E E E E E E E
|---------------------|----------------------|
|---------------------|----------------------|
|---------------------|----------------------|
|-2-------------------|----------------------|
|-2-------------------|----------------------|
|-0-0--0-0---0--0-0-0-|--0--0-0--0--0-0--0-0-|
|
| Gtr II
| ~~~~
| Q Q Q. E Q. Q. Q
|---------------------|----------------------|
|-----------12--------|-12------11------10---|
|-----/9------------x-|----------------------|
|---------------------|----------------------|
|---------------------|----------------------|
|---------------------|----------------------|
|
| Gtr III
| ~~~~
| Q Q Q. E Q. Q. Q
|---------------------|----------------------|
|----------[12]-------|-12------11------10---|
|-----/9------------x-|----------------------|
|---------------------|----------------------|
|---------------------|----------------------|
|---------------------|----------------------|


A5
PM-------------------------------------|
E E E E E E E E E E E E E E E E
|---------------------|----------------------|
|---------------------|----------------------|
|-2-------------------|----------------------|
|-2-------------------|----------------------|
|-0-0--0-0---0--0-0-0-|--0--0-0--0--0-0--0-0-|
|---------------------|----------------------|
|
| ~~~~
| Q Q H Q. Q. Q
|---------------------|----------------------|
|-----------12--------|-12------11------10---|
|-----/9--------------|----------------------|
|---------------------|----------------------|
|---------------------|----------------------|
|---------------------|----------------------|
|
| ~~~~
| Q Q Q. E Q. Q. Q
|---------------------|----------------------|
|----------[12]-------|-12------11------10---|
|-----/9------------x-|----------------------|
|---------------------|----------------------|
|---------------------|----------------------|
|---------------------|----------------------|


E5
PM-------------------------------------|
E E E E E E E E E E E E E E E E
|---------------------|----------------------|
|---------------------|----------------------|
|---------------------|----------------------|
|-2-------------------|----------------------|
|-2-------------------|----------------------|
|-0-0--0-0---0--0-0-0-|--0--0-0--0--0-0--0-0-|
|
| ~~~~
| Q Q Q. E Q. Q. Q
|---------------------|----------------------|
|-----------12--------|-12------11------10---|
|-----/9------------x-|----------------------|
|---------------------|----------------------|
|---------------------|----------------------|
|---------------------|----------------------|
|
| ~~~~
| Q Q Q. E Q. Q. Q
|---------------------|----------------------|
|----------[12]-------|-12------11------10---|
|-----/9------------x-|----------------------|
|---------------------|----------------------|
|---------------------|----------------------|
|---------------------|----------------------|


Bb5
W +W
|----------------------------------|---------------------------------|
|----------------------------------|---------------------------------|
|--3-------------------------------|-(3)-----------------------------|
|--3-------------------------------|-(3)-----------------------------|
|--1-------------------------------|-(1)-----------------------------|
|----------------------------------|---------------------------------|
|
| ~~~~~~ ~~~~~~ ~~~~~~ ~~~~~
| Q +Q Q +Q Q +Q Q +Q
|----------------------------------|---------------------------------|
|-10b11===(10)r---10b11===(10)r----|-10b11===(10)r----10b11===(10)---|
|----------------------------------|---------------------------------|
|----------------------------------|---------------------------------|
|----------------------------------|---------------------------------|
|----------------------------------|---------------------------------|
|
| PM--| PM--| PM--| ~~~~~~
| Q E E Q E E Q E E Q +Q
|----------------------------------|---------------------------------|
|----------------------------------|---------------------------------|
|----------------------------------|---------------------------------|
|--8--------8---8-10-------10---10-|-12-------12---12-15------(15)--|
|----------------------------------|---------------------------------|
|----------------------------------|---------------------------------|


E5 A5 G5 E5
H.. E +Q. H E
|------------------------|---------------------------------|
|------------------------|---------------------------------|
|----------------------2-|--(2)----------------------------|
|---2------------------2-|--(2)---------5----------------2-|
|---2------------------0-|--(0)---------5----------------2-|
|---0--------------------|--------------3----------------0-|
|
| +Q Q E E E E +E E E +E +E Q E
|------------------------|---------------------------------|
|-(11)r--12--11-12-11-10-|-(10)----10-(10)b12r(10)------11-|
|------------------------|------12-----------------12------|
|------------------------|---------------------------------|
|------------------------|---------------------------------|
|------------------------|---------------------------------|
|
| W H. E E
|------------------------|---------------------------------|
|------------------------|---------------------------------|
|------------------------|------------------------------11-|
|------------------------|---------------------------------|
|------------------------|---------------------------------|
|------------------------|---------------------------------|


E5 A5
+H Q. E +H H
|---------------------------------|--------------------|
|---------------------------------|--------------------|
|---------------------------------|-----------2--------|
|--(2)--------------------------2-|-(2)-------2--------|
|--(2)--------------------------2-|-(2)-------0--------|
|--(0)--------------------------0-|-(0)----------------|
|
| |--3--|
| +E E S S S E E E E E +Q Q Q Q
|---------------------------------|--------------------|
|-(11)-12-11-12-11----11----------|--------------10----|
|------------------12-----12-11-9-|-(9)--11--12--------|
|---------------------------------|--------------------|
|---------------------------------|--------------------|
|---------------------------------|--------------------|
|
| |--3--|
| +E E S S S E E E E E W
|---------------------------------|--------------------|
|---------------------------------|--------------------|
|-(11)-12-11-12-11----10----------|--------------------|
|------------------13-----13-12-9-|--------------------|
|---------------------------------|--------------------|
|---------------------------------|--------------------|


E5 F#5G5
W +H E Q E
|-----------------------|--------------------------|
|-----------------------|--------------------------|
|-----------------------|--------------------------|
|--2--------------------|-(2)----------4--5--------|
|--2--------------------|-(2)----------4--5--------|
|--0--------------------|-(0)----------2--3--------|
|
| |-3--| |-3--| |--3--|
| E E E Q E E E Q E E E Q E E +Q
|-----------------------|--------------------------|
|-12-11-8----12-11-8----|-12--11-8-----------------|
|---------9----------9--|----------9--11-12-(12)---|
|-----------------------|--------------------------|
|-----------------------|--------------------------|
|-----------------------|--------------------------|


F#5 Bb5 E5
Q +E E H H H
|-----------------------|--------------------------------|
|-----------------------|--------------------------------|
|-----------------------|---3----------------------------|
|-4----(4)--------------|---3------------------2---------|
|-4----(4)--------------|---1------------------2---------|
|-2----(2)--------------|----------------------0---------|
|
| TP TP TP TP TP
| |--3--|
| E E E E E Q E +E E S S S E E E +Q
|-----------------------|--------------------------------|
|----------10-11-12--11-|-(11)-12-11-12-11---------------|
|-9-11-12---------------|------------------12-11-9-(9)---|
|-----------------------|--------------------------------|
|-----------------------|--------------------------------|
|-----------------------|--------------------------------|


F#5 E5
PM--------------------------------------|
Q E E E E E E E E E E E E Q
|-------------------------------|-----------------------|
|-------------------------------|-----------------------|
|-------------------------------|-----------------------|
|--4----------------------------|--------------------2--|
|--4----------------------------|--------------------2--|
|--2-----2--2--2--2--2--2-------|--2--2--2--2--2--2--0--|
|
| |--3--|
| E E E E E E E S S S E E E E E Q.
|-------------12-14-15-14-15-14-|-12-14-12--------------|
|-11-12-14-15-------------------|----------15-14-12-----|
|-------------------------------|-----------------------|
|-------------------------------|-----------------------|
|-------------------------------|-----------------------|
|-------------------------------|-----------------------|


F#5 E5
PM----------------------------------------|
Q E E E E E E E E E E E E Q
|---------------------------------|------------------------|
|---------------------------------|------------------------|
|---------------------------------|------------------------|
|--4------------------------------|--------------------2---|
|--4------------------------------|--------------------2---|
|--2-----2--2--2--2-----2----2----|--2--2--2--2--2--2--0---|
|
| |---3---|
| E E E E E S S E E E E E E E E Q.
|-------------12-14-12------------|------------------------|
|-11-12-14-15----------15-14---12-|-11-12----11------------|
|---------------------------------|-------12----12-11------|
|---------------------------------|------------------------|
|---------------------------------|------------------------|
|---------------------------------|------------------------|


F#5 E5
PM------------------------------------------|
Q E E E E E E E E E E E E Q
|---------------------------------|----------------------------|
|---------------------------------|----------------------------|
|---------------------------------|----------------------------|
|--4------------------------------|-------------------------2--|
|--4------------------------------|-------------------------2--|
|--2--------2--2--2----2-----2--2-|--2----2-----2--2--2--2--0--|
|
| |--3--| |---3---| |---3---|
| E E E E E E E E E E E E E E E E Q.
|-14-15-14----12-14-15---14-18-19-|-18-19---21-19-18-15-14-----|
|----------14---------------------|----------------------------|
|---------------------------------|----------------------------|
|---------------------------------|----------------------------|
|---------------------------------|----------------------------|
|---------------------------------|----------------------------|


F#5 E5
PM--------------------------------------|
Q E E E E E E E E E E E E Q
|-------------------------------|-----------------------------|
|-------------------------------|-----------------------------|
|-------------------------------|-----------------------------|
|--4----------------------------|--------------------------2--|
|--4----------------------------|--------------------------2--|
|--2-----------2--2--2--2--2--2-|--2--2--------2--2--2--2--0--|
|
| |--3--| |--3--|
| E S S S E E E E E E E S S S E E E Q.
|-19-18-19-18----18-------------|-24-22-24-22-18----18--------|
|-------------20----20-19----19-|----------------20----19-----|
|-------------------------21----|-----------------------------|
|-------------------------------|-----------------------------|
|-------------------------------|-----------------------------|
|-------------------------------|-----------------------------|


C#5 C#5
W +W W +W
|-----------------|-------------------|-----------------|-----------------|
|-----------------|-------------------|-----------------|-----------------|
|--6--------------|--(6)--------------|--6--------------|-(6)-------------|
|--6--------------|--(6)--------------|--6--------------|-(6)-------------|
|--4--------------|--(4)--------------|--4--------------|-(4)-------------|
|-----------------|-------------------|-----------------|-----------------|
|
| Q. Q. Q +E Q. Q Q Q. Q. Q Q. Q. Q
|-----------------|-------------------|-----------------|-----------------|
|-----------------|-------------------|-----------------|-14----12--------|
|-------11----10--|-(10)--------------|-11----10--------|-------------13--|
|-11--------------|------12----11--9--|-------------11--|-----------------|
|-----------------|-------------------|-----------------|-----------------|
|-----------------|-------------------|-----------------|-----------------|


C#5
PM-------------------------------------------------------------|
E E E E E E E E E E E E E E E E
|------------------------------------|------------------------------|
|------------------------------------|------------------------------|
|--6---------------------------------|------------------------------|
|--6---------------------------------|------------------------------|
|--4--4--4-------4--4--4--4--------4-|--4--4--4--------4--4--4--4-4-|
|------------------------------------|------------------------------|
|
| |--3--| |--3--| |--3--|
| E E S S S E E E S S S E E E S S S E E Q.
|------------------------------------|------------------------------|
|------------------------------------|-12---------------------------|
|-11-10------------13-11-10-11-10----|----14-13-14-13-11-10---------|
|-------11-12-11-9----------------11-|----------------------12------|
|------------------------------------|------------------------------|
|------------------------------------|------------------------------|


F#5 E5
PM----------------------------------|
Q E E E E E E E E E E E E Q
|-----------------------|--------------------------|
|-----------------------|--------------------------|
|-----------------------|--------------------------|
|-4---------------------|---------------------2----|
|-4---------------------|---------------------2----|
|-2---2--2---2-2-2--2---|--2-2--2--2----2--2--0----|
|
| E E E. S E E E. S E E E. S E E E. S
|-----------------------|--------------------------|
|-7-5-7------9-7-9------|-10-9-10------12-10-12----|
|-----------------------|--------------------------|
|-----------------------|--------------------------|
|-----------------------|--------------------------|
|-----------------------|--------------------------|


F#5 E5
PM-------------------------------|
Q E E E E E E E E E E E E Q
|-------------------------|--------------------|
|-------------------------|--------------------|
|-------------------------|--------------------|
|--4----------------------|-----------------2--|
|--4----------------------|-----------------2--|
|--2-----2--2--2--2--2--2-|--2----2-2-2-2-2-0--|
|
| E E E E E E E E W
|-14----------------------|--------------------|
|----14-12-14-------------|--------------------|
|-------------13----13-14-|-16b18--------------|
|----------------16-------|--------------------|
|-------------------------|--------------------|
|-------------------------|--------------------|


N.C.
E E E E E E E E E E E E E E E E
|------------------------|------------------------|
|------------------------|------------------------|
|------------------------|------------------------|
|------------------------|------------------------|
|--9----9-9--9--7-7--7-7-|--6----6-6--6--5-5--5-5-|
|------------------------|------------------------|
|
| Q. Q. Q Q. Q. Q
|------------------------|------------------------|
|------------------------|-17b19-----17------14---|
|-13b14-----13------11---|------------------------|
|------------------------|------------------------|
|------------------------|------------------------|
|------------------------|------------------------|


N.C. F#5
E E E E E E E E E E E E H
|-------------------------|-----------------------------------|
|-------------------------|-----------------------------------|
|-------------------------|-----------------------------------|
|-------------------------|-----------------------------------|
|--4--4--4--4--3--3--3--3-|--2--2------2---2--4---------------|
|-------------------------|-------------------2---------------|
|
| E E E E E E E E E E +E E Q +E E
|-14----------------------|-----------------------------------|
|----14-12-14-------------|------------------17b19===(17)r---|
|-------------13----13-14-|-16-16b18r(16)-14------------------|
|----------------16-------|-----------------------------------|
|-------------------------|-----------------------------------|
|-------------------------|-----------------------------------|


N.C.
PM| PM| PM| PM-|
E E E E E E E E E E E E E E a Q
|-----------------|--------------------|
|-----------------|--------------------|
|-----7-----5-----|-8p7-(7)---7p5------|
|-0-0---0-0---0-0-|------0--0-----6S7--|
|-----------------|--------------------|
|-----------------|--------------------|
|
| W W
|-----------------|--------------------|
|-----------------|--------------------|
|-----------------|--------------------|
|-----------------|--------------------|
|-----------------|--------------------|
|-----------------|--------------------|


N.C.
PM| PM| PM| PM-|
E E E E E E E E E E E E E E a Q Q. Q. Q Q. Q. Q
|-----------------|--------------------|-----------------|-----------------|
|-----------------|--------------------|-----------------|-----------------|
|-----7-----5-----|-8p7-(7)---7p5------|-14----------14--|-14--------------|
|-0-0---0-0---0-0-|------0--0-----6S7--|-------12--------|-------12----10--|
|-----------------|--------------------|-----------------|-----------------|
|-----------------|--------------------|-----------------|-----------------|


Verse 3
D5
PM----------------------------------------
E E E E E E E E E E E E E E E E
||----------------------|--------------------|
||o---------------------|--------------------|
||----------------------|--------------------|
||--0-0-0-0--0--0-0--0--|-0-0--0--0--0-0-0-0-|
||o---------------------|--------------------|
||----------------------|--------------------|
|
| Gtr II
| PM PM
| Q Q E Q E Q E Q. Q
||----------------------|--------------------|
||o---------------------|---------6------5---|
||------7---(7)-5---(5)-|-3---(3)-7------5---|
||----------(0)-----(0)-|-----(0)------------|
||o---------------------|--------------------|
||----------------------|--------------------|


D5
----------------------------------------|
E E E E E E E E E E E E E E E E
|---------------------|----------------------||
|---------------------|---------------------o||
|---------------------|----------------------||
|-0-0-0-0--0--0-0--0--|-0-0--0--0--0-0-0-0---||
|---------------------|---------------------o||
|---------------------|----------------------||
|
| PM PM
| Q Q E Q E Q E Q. Q
|---------------------|----------------------||
|---------------------|---------6------5----o||
|-----7---(7)-5---(5)-|-3---(3)-7------5-----||
|---------(0)-----(0)-|-----(0)--------------||
|---------------------|---------------------o||
|---------------------|----------------------||


E5
W +W
||-------------------|------------------|
||o------------------|------------------|
||-------------------|------------------|
||--2----------------|-(2)--------------|
||o-2----------------|-(2)--------------|
||--0----------------|-(0)--------------|
|
| PM PM
| Q Q E Q E Q E Q. Q
||-------------------|------------------|
||o------------------|----------8----7--|
||-----9--(9)-7--(7)-|--5---(5)-9----7--|
||-------------------|------------------|
||o------------------|------------------|
||---------x------x--|-------x----------|


E5
W +W
|------------------|--------------------||
|------------------|-------------------o||
|------------------|--------------------||
|-2----------------|-(2)----------------||
|-2----------------|-(2)---------------o||
|-0----------------|-(0)----------------||
|
| PM PM
| Q Q E Q E Q E Q. Q
|------------------|--------------------||
|------------------|----------8----7---o||
|----9--(9)-7--(7)-|--5---(5)-9----7----||
|------------------|--------------------||
|------------------|-------------------o||
|--------x------x--|-------x------------||


Pre-Chorus
C5 A5
W +W W
|---------------|----------------|---------------|
|---------------|----------------|---------------|
|-5-------------|-(5)------------|-2-------------|
|-5-------------|-(5)------------|-2-------------|
|-3-------------|-(3)------------|-0-------------|
|---------------|----------------|---------------|
|
| Q Q. Q. Q. Q. Q Q Q. Q.
|---------------|----------------|---------------|
|---------------|-------8----7--|---------------|
|----/9----7----|--5-------------|----/9----7----|
|---------------|----------------|---------------|
|---------------|----------------|---------------|
|---------------|----------------|---------------|


E
PM------------------------------------|
+W E E E E E E E E E E E E E E E E
|----------------|---------------------|---------------------|
|----------------|---------------------|---------------------|
|-(2)------------|---------------------|---------------------|
|-(2)------------|---------------------|---------------------|
|-(0)------------|---------------------|---------------------|
|----------------|--0--0-0-0--0-0--0-0-|--0--0-0-0--0-0-0-0--|
|
| Q. Q. Q Q. Q. Q Q. Q. Q
|----------------|---------------------|---------------------|
|-------8----7--|-12-------------12---|-11------------------|
|--6-------------|---------9-----------|---------9------7----|
|----------------|---------------------|---------------------|
|----------------|---------------------|---------------------|
|----------------|---------------------|---------------------|


Chorus
C5 D5 E5
W W W +W
||-----------|----------|-----------------|-----------------|
||o----------|----------|-----------------|-----------------|
||--5--------|-7--------|-9---------------|-(9)-------------|
||--5--------|-7--------|-9---------------|-(9)-------------|
||o-3--------|-5--------|-7---------------|-(7)-------------|
||-----------|----------|-0---------------|-(0)-------------|
|
| W W E E H E E E E Q H
||-----------|----------|-----------------|-----------------|
||o----------|----------|-8-10-12----8-10-|-12--10-12-------|
||-----------|----------|-9-11-12----9-11-|-12--11-12-------|
||-----------|----------|-----------------|-----------------|
||o----------|----------|-----------------|-----------------|
||-----------|----------|-----------------|-----------------|


C5 D5 A5 A5
W W W +W +W +W
|----------|----------|----------|-------------||------------|--------|
|----------|----------|----------|------------o||------------|--------|
|-5--------|-7--------|-2--------|-(2)---------||-(2)--------|-(2)----|
|-5--------|-7--------|-2--------|-(2)---------||-(2)--------|-(2)----|
|-3--------|-5--------|-0--------|-(0)--------o||-(0)--------|-(0)----|
|----------|----------|----------|-------------||------------|--------|


N.C.
Q E E E E Q E E E E E S S E E
|-----------------------|--------------------------------|
|-----------------------|--------------------------------|
|-----------------------|--------------------------------|
|--------------5--4--5--|------------------5--4--5--4----|
|--7--------------------|------------------------------5-|
|------0---0------------|--0---0---0---0-----------------|
|
| Gtr III
| Q E E E E Q E E E E E S S E E
|-----------------------|--------------------------------|
|-----------------------|--------------------------------|
|-------------12-11-12--|-----------------12-11-12-11----|
|-14--------------------|-----------------------------12-|
|-----------------------|--------------------------------|
|-----(0)-(0)-----------|-(0)-(0)-(0)-(0)----------------|


N.C.
Q E E E E Q E E E E E S S E E
|-----------------------|----------------------------------|
|-----------------------|----------------------------------|
|-----------------------|----------------------------------|
|--------------5--4--5--|------------------5--4--5--4------|
|--7--------------------|------------------------------5---|
|------0---0------------|--0---0---0---0-------------------|
|
| Q E E E E Q E E E E E S S E E
|-----------------------|----------------------------------|
|-----------------------|----------------------------------|
|-------------12-11-12--|-----------------12-11-12-11------|
|-14--------------------|-----------------------------12---|
|-----------------------|----------------------------------|
|-----(0)-(0)-----------|-(0)-(0)-(0)-(0)------------------|


Outro
E5 A5
W +W W +W
|---------------------|------------------|------------------|-----------------|
|---------------------|------------------|------------------|-----------------|
|---------------------|------------------|---2--------------|-(2)-------------|
|--2------------------|--(2)-------------|---2--------------|-(2)-------------|
|--2------------------|--(2)-------------|---0--------------|-(0)-------------|
|--0------------------|--(0)-------------|------------------|-----------------|
|
| Gtr II
| Q Q. Q. Q E Q. Q Q Q. Q. Q E Q. Q
|---------------------|------------------|------------------|-----------------|
|---------------------|---------10----9--|------------------|--------10----9--|
|-----------9----7----|---9---x----------|--------9----7----|--9---x----------|
|---------------------|------------------|------------------|-----------------|
|---------------------|------------------|------------------|-----------------|
|---------------------|------------------|------------------|-----------------|
|
| Gtr III
| Q +H. +W +W W
|---------------------|------------------|------------------|-----------------|
|---------------------|------------------|------------------|-----------------|
|---------------------|------------------|------------------|-----------------|
|-12b14===(12)--------|-(12)-------------|-(12)r------------|-----------------|
|---------------------|------------------|------------------|-----------------|
|---------------------|------------------|------------------|-----------------|


E5
W +W
|---------------------|-------------------|
|---------------------|-------------------|
|---------------------|-------------------|
|--2------------------|--(2)--------------|
|--2------------------|--(2)--------------|
|--0------------------|--(0)--------------|
|
| Gtr II
| Q Q. Q. Q E Q. Q
|---------------------|-------------------|
|---------------------|----------10----9--|
|-----------9----7----|---9----x----------|
|---------------------|-------------------|
|---------------------|-------------------|
|---------------------|-------------------|
|
| Gtr III
| Q +H. +W
|---------------------|-------------------|
|---------------------|-------------------|
|-14b16===(14)--------|-(14)r-------------|
|---------------------|-------------------|
|---------------------|-------------------|
|---------------------|-------------------|


C5
W +W
|---------------------|------------------|
|---------------------|------------------|
|--5------------------|-(5)--------------|
|--5------------------|-(5)--------------|
|--3------------------|-(3)--------------|
|---------------------|------------------|
|
| Q E E Q E E Q E E H
|---------------------|------------------|
|---------------------|------------------|
|--9--------11--------|-12---------16----|
|-10--10-10-12--12-12-|-14---14-14-14----|
|---------------------|------------------|
|---------------------|------------------|
|
| Q E E Q E E Q E E H
|-12--------14--------|-15---------19----|
|-13--13-13-15--15-15-|-17---17-17-17----|
|---------------------|------------------|
|---------------------|------------------|
|---------------------|------------------|
|---------------------|------------------|


E5 A5
W +W W +W
|---------------------|------------------|------------------|-----------------|
|---------------------|------------------|------------------|-----------------|
|---------------------|------------------|---2--------------|-(2)-------------|
|--2------------------|--(2)-------------|---2--------------|-(2)-------------|
|--2------------------|--(2)-------------|---0--------------|-(0)-------------|
|--0------------------|--(0)-------------|------------------|-----------------|
|
| Q Q. Q. Q E Q. Q Q Q. Q. Q E Q. Q
|---------------------|------------------|------------------|-----------------|
|---------------------|---------10----9--|------------------|--------10----9--|
|-----------9----7----|---9---x----------|--------9----7----|--9---x----------|
|---------------------|------------------|------------------|-----------------|
|---------------------|------------------|------------------|-----------------|
|---------------------|------------------|------------------|-----------------|
|
| Q +H. +W +W W
|---------------------|------------------|------------------|-----------------|
|---------------------|------------------|------------------|-----------------|
|---------------------|------------------|------------------|-----------------|
|-12b14===(12)--------|-(12)-------------|-(12)r------------|-----------------|
|---------------------|------------------|------------------|-----------------|
|---------------------|------------------|------------------|-----------------|


E5
W +W
|---------------------|-------------------|
|---------------------|-------------------|
|---------------------|-------------------|
|--2------------------|--(2)--------------|
|--2------------------|--(2)--------------|
|--0------------------|--(0)--------------|
|
| Q Q. Q. Q E Q. Q
|---------------------|-------------------|
|---------------------|----------10----9--|
|-----------9----7----|---9----x----------|
|---------------------|-------------------|
|---------------------|-------------------|
|---------------------|-------------------|
|
| Q +H. +W
|---------------------|-------------------|
|---------------------|-------------------|
|-14b16===(14)--------|-(14)r-------------|
|---------------------|-------------------|
|---------------------|-------------------|
|---------------------|-------------------|


C5
W +W
|------------------------|---------------------|
|------------------------|---------------------|
|--5---------------------|-(5)-----------------|
|--5---------------------|-(5)-----------------|
|--3---------------------|-(3)-----------------|
|------------------------|---------------------|
|
| |--3--| |--3--|
| Q E E Q E E E Q E E E H
|------------------------|---------------------|
|------------------------|---------------------|
|--9--------11-----------|-12------------16----|
|-10--10-10-12--12-12-12-|-14---14-14-14-14----|
|------------------------|---------------------|
|------------------------|---------------------|
|
| |--3--| |--3--|
| Q E E Q E E E Q E E E H
|-12--------14-----------|-15------------19----|
|-13--13-13-15--15-15-15-|-17---17-17-17-17----|
|------------------------|---------------------|
|------------------------|---------------------|
|------------------------|---------------------|
|------------------------|---------------------|


E5 E5 E5
H.. E +H.. E
|------------------------|-------------------------|
|------------------------|-------------------------|
|------------------------|-------------------------|
|-2--------------------2-|-(2)-------------------2-|
|-2--------------------2-|-(2)-------------------2-|
|-0--------------------0-|-(0)-------------------0-|
|
| |-3-| |-3-|
| E E S S S E E E E E E E S S S E E E E E
|------------------------|-------------------------|
|-----8-7-8-7---7--------|------8-7-8-7---7--------|
|-------------9---9-8----|--------------9---9-8----|
|---------------------10-|----------------------10-|
|------------------------|-------------------------|
|------------------------|-------------------------|
|
| W W
|------------------------|-------------------------|
|------------------------|-------------------------|
|------------------------|-------------------------|
|------------------------|-------------------------|
|------------------------|-------------------------|
|------------------------|-------------------------|


E5
PM------|
+W E E E E Q Q
|------------------------|---------------------*|
|------------------------|---------------------*|
|------------------------|---------------------*|
|-(2)--------------------|--------------2-----*|
|-(2)--------------------|--------------2-----*|
|-(0)--------------------|--0--0--0--0--0-----*|
|
| |-3-|
| E E S S S E E E E E E E E E Q Q
|------------------------|-------11-12-19-----*|
|-----8-7-8-7---7--------|-12-13-------12-----*|
|-------------9---9-8----|--------8--9---------*|
|---------------------10-|--9-10---------------*|
|------------------------|---------------------*|
|------------------------|---------------------*|
|
| W E E E E Q Q
|------------------------|-------------12-----*|
|------------------------|--------7--8---------*|
|------------------------|--8--9---------------*|
|------------------------|---------------------*|
|------------------------|---------------------*|
|------------------------|---------------------*|



Duration Legend
---------------
W - whole; H - half; Q - quarter; E - 8th; S - 16th; T - 32nd; X - 64th; a - acciaccatura
+ - note tied to previous; . - note dotted; .. - note double dotted
Uncapitalized letters represent notes that are staccato (1/2 duration)
Irregular groupings are notated above the duration line
Duration letters will always appear directly above the note/fret number it represents the
duration for. Duration letters with no fret number below them represent rests. Multi-
bar rests are notated in the form Wxn, where n is the number of bars to rest for. Low
melody durations appear below the staff

Tablature Legend
----------------
h - hammer-on
p - pull-off
b - bend
pb - pre-bend
r - bend release (if no number after the r, then release immediately)
/ - slide into or out of (from/to "nowhere")
s - legato slide
S - shift slide
- natural harmonic
[n] - artificial harmonic
n(n) - tapped harmonic
~ - vibrato
tr - trill
T - tap
TP - trem. picking
PM - palm muting
n/ - tremolo bar dip; n = amount to dip
n - tremolo bar down
n/ - tremolo bar up
/n - tremolo bar inverted dip
= - hold bend; also acts as connecting device for hammers/pulls
<> - volume swell (louder/softer)
x - on rhythm slash represents muted slash
o - on rhythm slash represents single note slash

Misc Legend
-----------
| - bar
|| - double bar
||o - repeat start
o|| - repeat end
*| - double bar (ending)
: - bar (freetime)
$ - Segno
& - Coda
Tempo markers - = BPM(8/16=s8/s16), where s8 = swing 8ths, s16 = swing 16ths

-----------------------------
|  , ,   |
|     http://akords.org     |
-----------------------------

 (: 0)
    :
  • Black Chamber
  • Nightfall
  • Valhalla
  • And The Story Ends
  • Weird Dreams
  •  
    , . '.

    ':*
    E-Mail:*
    :
    , : *
     
      

    BLIBL-