|  
 
:  
  : :  
      ?    

  |

akords.org » B » Blind Guardian » Imaginations From The Other Side

Blind Guardian - Imaginations From The Other Side 2

#----------------------------------PLEASE NOTE---------------------------------#
#This file is the author's own work and represents their interpretation of the #
#song. You may only use this file for private study, scholarship, or research. #
#------------------------------------------------------------------------------#

IMAGINATIONS FROM THE OTHER SIDE
As recorded by Blind Guardian
(From the 1995 Album IMAGINATIONS FROM THE OTHER SIDE)

Transcribed by sergio miguelez(elmomias@hotmail.com)


Words and Music by Blind Guardian

E5
0 2 2 x x x

Bb5
x 1 3 3 x x

G5
3 5 5 x x x

A5
x 0 2 2 x x
C5
x 3 5 5 x x

B5
x 2 4 4 x x

D5
x x 0 2 3 x

E5(type 2)
0 2 x x x x
A5(type 2)
5 7 7 x x x

Bb5(type 2)
6 8 8 x x x

F#5
2 4 4 x x x

D5(type 2)
x 5 7 7 x x
C#5
x 4 6 6 x x

F5
1 3 3 x x x

G#5
4 6 6 x x x

Eb5
x 6 8 8 x x
E5(type 3)
x 7 9 9 x x

B5(type 2)
7 9 9 x x x

Gtr I (Eb Ab Db Gb Bb Eb) - 'Acoustic Guitar (ste'
Gtr II (Eb Ab Db Gb Bb Eb) - 'Guitar 1'
Gtr III (Eb Ab Db Gb Bb Eb) - 'Guitar 2'
Gtr IV (Eb Ab Db Gb Bb Eb) - 'Additional Guitars'
Gtr V (Eb Ab Db Gb Bb Eb) - '8va'

Moderately FastQ=135y E=135
Em Ebm
1/8 4/4
Gtr I
W Wx2 Q. E +H Q. E H
|---|------------||----------------|--------------||
|---|------------||o------8-(8)----|------8-7----o||
|---|------------||--9----9-(9)----|-9----9-8-----||
|---|------------||--9-------------|-9------------||
|---|------------||o-7-------------|-7-----------o||
|---|------------||----------------|--------------||


Em Ebm E5
Gtr III
W W W
|
/

Gtrs II, V
PM----| PM--| ~
Q. E +H Q. E H S S S S S S S S S S S S E E
||-------7-(7)----|------7-6-----||-||------------------------------|
||o------8-(8)----|------8-7----o||-||o-----------------------------|
||--9----9-(9)----|-9----9-8-----||-||----------4-------3h4p3-0-5---|
||--9-------------|-9------------||-||--2-2-2-2---2-2-2-----------3-|
||o-7-------------|-7-----------o||-||o-----------------------------|
||----------------|--------------||-||------------------------------|


E5 BbG5 A5
H E E +E E W
| | | | |
/ / / / /

Gtrs II, V
PM--| PM| ~ PM----| PM----| PM|
E S S E S S E E +E E 4x S S S S S S S S S S S S S S S S
|------------------------||---------------------------------|
|-----------------------o||---------------------------------|
|-------4-----3-0-(0)-2--||-7s9---------7s9---------7s9-----|
|-2-2-2---2-2------------||---------------------------------|
|-----------------------o||-5s7-7-7-7-7-5s7-7-7-7-7-5s7-7-7-|
|------------------------||---------------------------------|
|
| Gtr III
| PM----| PM----| PM|
| W 4x S S S S S S S S S S S S S S S S
|------------------------||---------------------------------|
|-----------------------o||---------------------------------|
|------------------------||---------------------------------|
|------------------------||---------------------------------|
|-----------------------o||-5h7---------5h7---------5h7-----|
|------------------------||-----0-0-0-0-----0-0-0-0-----0-0-|


W
PM----| PM----| PM|
S S S S S S S S S S S S S S S S
|-----------------------------------|
|-----------------------------------|
|-7s9---------7s9---------7s9-------|
|-----------------------------------|
|-5s7-7-7-7-7-5s7-7-7-7-7-5s7-7-7---|
|-----------------------------------|
|
| PM----| PM----| PM|
| S S S S S S S S S S S S S S S S
|-----------------------------------|
|-----------------------------------|
|-----------------------------------|
|-----------------------------------|
|-5h7---------5h7---------5h7-------|
|-----0-0-0-0-----0-0-0-0-----0-0---|


PM------| PM------| PM|
S S S S S S S S S S S S S S S S
|-------------------------------------------------|
|-------------------------------------------------|
|--7s=9--------------7s=9--------------7s=9-------|
|-------------------------------------------------|
|--5s=7--7--7--7--7--5s=7--7--7--7--7--5s=7--7--7-|
|-------------------------------------------------|
|
| PM------| PM------| PM|
| S S S S S S S S S S S S S S S S
|-------------------------------------------------|
|-------------------------------------------------|
|-------------------------------------------------|
|--4h=5--------------4h=5--------------4h=5-------|
|-------------------------------------------------|
|--------0--0--0--0--------0--0--0--0--------0--0-|
|
| Gtr IV
| PM------| PM------| PM|
| S S S S S S S S S S S S S S S S
|-------------------------------------------------|
|-------------------------------------------------|
|-11h12-------------11h12-------------11h12-------|
|-------------------------------------------------|
|-------10-10-10-10-------10-10-10-10-------10-10-|
|-------------------------------------------------|


PM------| PM------| ~~
S S S S S S S S S S S S a Q
|---------------------------------------------||
|---------------------------------------------||
|--7s=9--------------7s=9--------------7s=9---||
|---------------------------------------------||
|--5s=7--7--7--7--7--5s=7--7--7--7--7--5--7---||
|---------------------------------------------||
|
| PM------| PM------| ~~
| S S S S S S S S S S S S a Q
|---------------------------------------------||
|---------------------------------------------||
|---------------------------------------------||
|--4h=5--------------4h=5--------------4s=5---||
|---------------------------------------------||
|--------0--0--0--0--------0--0--0--0---------||
|
| PM------| PM------| ~~
| S S S S S S S S S S S S a Q
|-------------------------------------14s15---||
|---------------------------------------------||
|-11h12-------------11h12---------------------||
|---------------------------------------------||
|-------10-10-10-10-------10-10-10-10---------||
|---------------------------------------------||


Verse
E5
Gtr III
W +W
| |
/ /

Gtrs II, V
PM-----------------------------------------------------------|
E S S S S S S S S S S S S S S E S S S S S S S S S S S S S S
||--------------------------------|---------------------------------|
||o-------------------------------|---------------------------------|
||--9-9-9-9-9-9-9-9-9-9-9-9-9-9-9-|--9-9-9-9-9-9-9-9-9-9-9-9-9-9-9--|
||--------------------------------|---------------------------------|
||o-------------------------------|---------------------------------|
||--------------------------------|---------------------------------|


C5
W
|
/

PM-------------------------------------------
E S S S S S S S S S S S S S S
|----------------------------------------------|
|----------------------------------------------|
|-12-12-12-12-12-12-12-12-12-12-12-12-12-12-12-|
|----------------------------------------------|
|----------------------------------------------|
|----------------------------------------------|


+W
|
/

-------------------------------------------|
E S S S S S S S S S S S S S S
|-----------------------------------------------||
|----------------------------------------------o||
|-12-12-12-12-12-12-12-12-12-12-12-12-12-12-12--||
|-----------------------------------------------||
|----------------------------------------------o||
|-----------------------------------------------||


A5 B5 C5 D5
Gtrs II, III
W W W W
|----------|----------|----------|------|
|----------|----------|----------|------|
|-2--------|-4--------|-5--------|-7----|
|-2--------|-4--------|-5--------|-7----|
|-0--------|-2--------|-3--------|-5----|
|----------|----------|----------|------|


Pre-Verse
E5 F5 E5 D5 E5
Gtr II
PM| PM| PM PM PM
S S S S S E S E S S +S S E
||------------------------------|
||------------------------------|
||-----9-----10---9---7-(7)---9-|
||-----9-----10---9---7-(7)---9-|
||-----7------8---7---5-(5)---7-|
||-0-0---0-0----0---0-------0---|


E5 F5 G5 A5 Bb5 E5 F5 E5 D5 E5
PM| PM| PM PM| PM| PM PM PM
S S S S S E S E. S +E E S S S S S E S E S S +S S E
|---------------------------|-------------------------------|
|---------------------------|-------------------------------|
|-----9-----10--------------|-----9-----10---9---7-(7)---9--|
|-----9-----10---5--7-(7)-8-|-----9-----10---9---7-(7)---9--|
|-----7------8---5--7-(7)-8-|-----7------8---7---5-(5)---7--|
|-0-0---0-0----0-3--5-(5)-6-|-0-0---0-0----0---0-------0----|


E5 F5 Bb5G5 A5 E5(type 2)
Gtr III
W S S S S S S S S S S S S S S S S
| | | | | | | | | | | | | | | |
/ o / / / / / / / / / / / / / /

Gtr II
PM| PM| PM PM| PM| PM PM PM
S S S S S E S E. S +E E S S S S S E S E S S +S S E
|---------------------------|------------------------------------|
|---------------------------|------------------------------------|
|-----9-----10--------------|-----9-----10-----9-----7-(7)---9---|
|-----9-----10---8--5-(5)-7-|-----9-----10-----9-----7-(7)---9---|
|-----7------8---8--5-(5)-7-|-----7------8-----7-----5-(5)---7---|
|-0-0---0-0----0-6--3-(3)-5-|-0-0---0-0------0-----0-------0-----|


G5 A5(typBb5(type 2)
S S S S S S S S E. S +E E
| | | | | | | | | | | |
/ / / / / / / / / / / /

PM| PM| PM
S S S S S E S E. S +E E
|-----------------------------|
|-----------------------------|
|-----9-----10----------------|
|-----9-----10-----5--7-(7)-8-|
|-----7------8-----5--7-(7)-8-|
|-0-0---0-0------0-3--5-(5)-6-|


Verse
E5(type 2) Bb5G5 A5 E5
Gtr III
S S S S S S S S S S S S S S S S S S S S S S S S E. S +E E W
| | | | | | | | | | | | | | | | | | | | | | | | | | | | |
/ o / / / / / / / / / / / / / / / / / / / / / / / / / / /

Gtrs II, V
PM| PM| PM PM PM PM| PM| PM
S S S S S E S E S S +S S E S S S S S E S E. S +E E W
|------------------------------------|-----------------------------||------|
|------------------------------------|-----------------------------||------|
|-----9-----10-----9-----7-(7)---9---|-----9-----10----------------||------|
|-----9-----10-----9-----7-(7)---9---|-----9-----10-----8--5-(5)-7-||------|
|-----7------8-----7-----5-(5)---7---|-----7------8-----8--5-(5)-7-||------|
|-0-0---0-0------0-----0-------0-----|-0-0---0-0------0-6--3-(3)-5-||------|


G5 D5 A5 E5
W W W W
| | | |
/ / / /

~
W W H E. S +E E a W
|----------|----------|-----------------|--------|
|----------|----------|-----------------|--------|
|----------|----------|---------------7-|-7s9----|
|----------|----------|------7--9-(9)---|--------|
|----------|----------|-----------------|--------|
|----------|----------|-----------------|--------|
|
| Gtr IV
| ~
| W W H E. S +E E a W
|----------|----------|-----------------|--------|
|----------|----------|-----------------|--------|
|----------|----------|-----------------|--------|
|----------|----------|-----------------|--------|
|----------|----------|---------------5-|-5s7----|
|----------|----------|------5--7-(7)---|--------|


G5 D5 A5
W W W
| | |
/ / /

~~ ~~ ~~
|--3--|
H E S S S Q H +E E E E W
|-----------------------|---------------------|-------|
|-------15-13h15p13-12--|---------------12----|-------|
|-12--------------------|-14----(14)-14----12-|-14----|
|-----------------------|---------------------|-------|
|-----------------------|---------------------|-------|
|-----------------------|---------------------|-------|
|
| ~~ ~~ ~~
| |--3--|
| H E S S S Q H +E E E E W
|-----------------------|---------------------|-------|
|-----------------------|---------------------|-------|
|-----------------------|---------------------|-------|
|-------12-10h12p10--9--|----------------9----|-------|
|-10--------------------|-12----(12)-12----10-|-12----|
|-----------------------|---------------------|-------|


Bridge
F#5
W
|
/

PM------------------------------------------
S S S S +S S S S S E S S E S
||----------------------------------------------|
||o---------------------------------------------|
||--11-11-11-11-(11)-12-11-11-11-11-12-11-11-12-|
||----------------------------------------------|
||o---------------------------------------------|
||----------------------------------------------|


A5
W
|
/

------------------------------------------|
S S S S +S S S S S E S S E S
|---------------------------------------------|
|---------------------------------------------|
|-11-11-11-11-(11)-12-11-11-11-11-12-11-11-12-|
|---------------------------------------------|
|---------------------------------------------|
|---------------------------------------------|


B5 D5 C#5
W H H
| | |
/ / /

PM------------------------------------------------------------------------------------|
S S S S +S S S S S E S S E S S S S S +S S S S S E S S E S
|---------------------------------------------|----------------------------------------------||
|---------------------------------------------|---------------------------------------------o||
|-11-11-11-11-(11)-12-11-11-11-11-12-11-11-12-|-11-11-11-11-(11)-12-11-11-11-11-12-11-11-12--||
|---------------------------------------------|----------------------------------------------||
|---------------------------------------------|---------------------------------------------o||
|---------------------------------------------|----------------------------------------------||
|
| Gtr IV
| W W
|---------------------------------------------|----------------------------------------------||
|---------------------------------------------|---------------------------------------------o||
|---------------------------------------------|----------------------------------------------||
|---------------------------------------------|----------------------------------------------||
|---------------------------------------------|---------------------------------------------o||
|---------------------------------------------|----------------------------------------------||


Interlude
F#5 F# F#5 F# F#5 F#
E S S S S E S S S S E S S
| | | | | | | | | | | | |
/ o / / / / o / / / / o /

~~~ ~~~~~~~~~
Q. E +E E +E E
|-||--------------------------------------------|
|-||o-------------12b13-(12)---12---(12)--------|
|-||--11---------------------------------14-----|
|-||--------------------------------------------|
|-||o-------------------------------------------|
|-||--------------------------------------------|
|
| ~~~ ~~~~~~~~~
| Q. E +E E +E E
|-||--------------------------------------------|
|-||o-------------------------------------------|
|-||--------------------------------------------|
|-||---------------9b10--(9)----9----(9)--------|
|-||o--9---------------------------------12-----|
|-||--------------------------------------------|


F5 F F5 F F5 F G5 G G5 G G5G
E S S S S E S S S S E S S E S S S S E S S S S E S S
| | | | | | | | | | | | | | | | | | | | | | | | | |
/ o / / / / o / / / / o / / o / / / / o / / / / o /

~~~ ~~~~ ~~~~ ~~~~~~~~~~
Q. E +E E +E E Q. Q Q.
|--------------------------------------|----------------------------------|
|-13----------12-(12)-------------13---|-13b15---------13-----12----------|
|-----------------------14---(14)------|----------------------------------|
|--------------------------------------|----------------------------------|
|--------------------------------------|----------------------------------|
|--------------------------------------|----------------------------------|
|
| ~~~ ~~~~ ~~~~
| Q. E +E E +E E Q. Q Q.
|--------------------------------------|----------------------------------|
|--------------------------------------|----------------------------------|
|--------------------------------------|----------------------------------|
|-10-----------9--(9)-------------10---|-10b12---------10------9----------|
|-----------------------12---(12)------|----------------------------------|
|--------------------------------------|----------------------------------|


D5(tDpe 2) D5(Dype 2) D5Dtype 2)
E S S S S E S S S S E S S
| | | | | | | | | | | | |
/ o / / / / o / / / / o /

~~~ ~~~~
Q. E +E Q E
|------------------------------------||-|
|-----------------------------------o||-|
|-14----------12-(12)---11-----------||-|
|------------------------------14----||-|
|-----------------------------------o||-|
|------------------------------------||-|
|
| ~~~ ~~~~
| Q. E +E Q E
|------------------------------------||-|
|-----------------------------------o||-|
|------------------------------------||-|
|------------------------------------||-|
|-12----------10-(10)----9----------o||-|
|------------------------------12----||-|


Chorus
F#5 E5
W W
| |
/ /

~~ ~~
E S S E E S S S S E E E S S E E S S S S E E
||-----------------------------------|----------------------------------|
||o----14-14-14----14h15p14p12----14-|----14-14-14----14h15p14p12-------|
||--11----------11-------------14----|-11----------11-------------14-13-|
||-----------------------------------|----------------------------------|
||o----------------------------------|----------------------------------|
||-----------------------------------|----------------------------------|
|
| W W
||-----------------------------------|----------------------------------|
||o----------------------------------|----------------------------------|
||-----------------------------------|----------------------------------|
||-----------------------------------|----------------------------------|
||o----------------------------------|----------------------------------|
||-----------------------------------|----------------------------------|


1.,2.,3.
B5 A5 B5
W H H
| | |
/ / /

~~ ~~ ~~ ~~
E S S E E S S S S E E E S S E E E. S +E E 4x
|----------------------------------|----------------14--12-(12)-----||
|----14-14-14----14h15p14p12----14-|----14-14-14----------------15-o||
|-11----------11-------------14----|-11----------11-----------------||
|----------------------------------|--------------------------------||
|----------------------------------|-------------------------------o||
|----------------------------------|--------------------------------||


Guitar Solo1
4.
A5 B5 F#
H H S S S S S S S S S S S S S S S S
| | | | | | | | | | | | | | | | | |
/ / o / / / / / / / / / / / / / / /

~~ ~ ~~~~~
E S S E E E. S +E E a W
|----------------14--12-(12)-9-||----------------------------------------|
|----14-14-14------------------||-10s17b19-------------------------------|
|-11----------11---------------||----------------------------------------|
|------------------------------||----------------------------------------|
|------------------------------||----------------------------------------|
|------------------------------||----------------------------------------|
|
| Gtr IV
| W W
|------------------------------||----------------------------------------|
|------------------------------||-----5b7--------------------------------|
|------------------------------||----------------------------------------|
|------------------------------||----------------------------------------|
|------------------------------||----------------------------------------|
|------------------------------||----------------------------------------|


A E
Gtr III
S S S S S S S S S S S S S S S S
| | | | | | | | | | | | | | | |
o / / / / / / / o / / / / / / /

Gtr II
~~~
S S S E. S S S E. +E S S
|-12h14p12-----------------------------------17-19-|
|----------15b17r====15-14h15-14------(14)---------|
|--------------------------------------------------|
|--------------------------------------------------|
|--------------------------------------------------|
|--------------------------------------------------|
|
| Gtr IV
| ~~~
| S S S E. S S S E. +E S S
|--------------------------------------------------|
|-14h17p14-----------------------------------19-21-|
|----------16b18r====16-14h16-14------(14)---------|
|--------------------------------------------------|
|--------------------------------------------------|
|--------------------------------------------------|


F#
S S S S S S S S S S S S S S S S
| | | | | | | | | | | | | | | |
o / / / / / / / / / / / / / / /

S S S S S S S S S S S S S S S S
|-21-19-17-19-21-19-17-19-21-19-17-19-21-19-17-19-|
|-------------------------------------------------|
|-------------------------------------------------|
|-------------------------------------------------|
|-------------------------------------------------|
|-------------------------------------------------|
|
| S S S S S S S S S S S S S S S S
|-------------------------------------------------|
|-22-21-19-21-22-21-19-21-22-21-19-21-22-21-19-21-|
|-------------------------------------------------|
|-------------------------------------------------|
|-------------------------------------------------|
|-------------------------------------------------|


A E
S S S S S S S S S S S S S S S S
| | | | | | | | | | | | | | | |
o / / / / / / / o / / / / / / /

~~~~~ ~~
Q. S S H
|-21b22-----------19h21-19---------------|
|----------------------------------------|
|----------------------------------------|
|----------------------------------------|
|----------------------------------------|
|----------------------------------------|
|
| ~~~~~ ~~
| Q. S S H
|----------------------------------------|
|-22b24-----------21h22-21---------------|
|----------------------------------------|
|----------------------------------------|
|----------------------------------------|
|----------------------------------------|


F#
S S S S S S S S S S S S S S S S
| | | | | | | | | | | | | | | |
o / / / / / / / / / / / / / / /

S S S S S S S S S S S S S S S S
|-21-21-19-19-17-17-19-19-17-17-16-16-14-14-12-12-|
|-------------------------------------------------|
|-------------------------------------------------|
|-------------------------------------------------|
|-------------------------------------------------|
|-------------------------------------------------|
|
| S S S S S S S S S S S S S S S S
|-------------------------------------------------|
|-22-22-21-21-19-19-21-21-19-19-17-17-16-16-12-12-|
|-------------------------------------------------|
|-------------------------------------------------|
|-------------------------------------------------|
|-------------------------------------------------|


A E
S S S S S S S S S S S S S S S S
| | | | | | | | | | | | | | | |
o / / / / / / / o / / / / / / /

~~
H H
|-22b24---------------22---------------|
|--------------------------------------|
|--------------------------------------|
|--------------------------------------|
|--------------------------------------|
|--------------------------------------|
|
| ~~
| H H
|-19b21---------------19---------------|
|--------------------------------------|
|--------------------------------------|
|--------------------------------------|
|--------------------------------------|
|--------------------------------------|


F#
S S S S S S S S S S S S S S S S
| | | | | | | | | | | | | | | |
o / / / / / / / / / / / / / / /

S S S S S S S S S S S S S S S S
|-17p0-19-0-21p0-17p0-19p0-21p0-17p0-19p0-|
|-----------------------------------------|
|-----------------------------------------|
|-----------------------------------------|
|-----------------------------------------|
|-----------------------------------------|
|
| e e e e e e e e
|-----------------------------------------|
|-19---21---22---19---21---22---19---21---|
|-----------------------------------------|
|-----------------------------------------|
|-----------------------------------------|
|-----------------------------------------|


Guitar Break
A E C# C#5C C5B5A5
S S S S S S S S S S S S S S S S S S S S Q S S E E E
| | | | | | | | | | | | | | | | | | | | | | | | | |
o / / / / / / / o / / / / / / / o / / / / o / / / /

~~ PM----| PM|
|--------5--------|
Q S S S S S H S S S S Q S S E E E
|-21b22-------21p19h==21p==19s==17h19---------------||-----------------------|
|---------------------------------------------------||-----------------------|
|---------------------------------------------------||-----------------------|
|---------------------------------------------------||---------6------5-5-2--|
|---------------------------------------------------||-4-4-4-4-4--3-3-3-2-0--|
|---------------------------------------------------||-----------------------|
|
| ~~
| |--------5--------|
| Q S S S S S H W
|---------------------------------------------------||-----------------------|
|-22b24-------22p21h==22p==21s==19-21---------------||-----------------------|
|---------------------------------------------------||-----------------------|
|---------------------------------------------------||-----------------------|
|---------------------------------------------------||-----------------------|
|---------------------------------------------------||-----------------------|


C#5 C5G/A5 C#5 C5G/A5 C#5
Gtrs II, III Gtrs II, IV
PM----| PM| PM----| PM| PM----| PM----|
S S S S Q S S E E E S S S S Q S S E E E S S S S E S S S S E Q
|----------------------|----------------------|------------------------|
|----------------------|----------------------|------------------------|
|----------------------|----------------------|---------6---------6----|
|---------6------5-5-2-|---------6------5-5-2-|---------6---------6----|
|-4-4-4-4-4--3-3-3-2-0-|-4-4-4-4-4--3-3-3-2-0-|-4-4-4-4-4-4-4-4-4-4----|
|----------------------|----------------------|------------------------|


F#5 F5
Gtr III
S S S S S S S S S S E +Q S S S S S S S S S S E +Q
| | | | | | | | | | | | | | | | | | | | | |
/ / / / / / / / / / / / / / / / / / / / / /

Gtr I
Q. E +H Q. E H
||-----------------------------------|---------------------------------||
||o---------------10---(10)----------|---------------10----9----------o||
||--11------------11---(11)----------|-11------------11---10-----------||
||--11-------------------------------|-11------------------------------||
||o--9-------------------------------|--9-----------------------------o||
||-----------------------------------|---------------------------------||
|
| Gtr II
| PM----------------------------------------------------------|
| S S S S S S S S S S E +Q S S S S S S S S S S E +Q
||-----------------------------------|---------------------------------||
||o--7--7-7-7-7----7-7---7--7-7-(7)--|--7--7-7-7-7----7-7--6-6-6-(6)--o||
||-----------------------------------|---------------------------------||
||-----------------------------------|---------------------------------||
||o----------------------------------|--------------------------------o||
||-----------------------------------|---------------------------------||


F#5 F5
S S S S S S S S S S E +Q S S S S S S S S S S E +Q
| | | | | | | | | | | | | | | | | | | | | |
/ / / / / / / / / / / / / / / / / / / / / /

Q. E +H Q. E H
||-----------------9----(9)----------|----------------9----8-----------||
||o---------------10---(10)----------|---------------10----9----------o||
||--11------------11---(11)----------|-11------------11---10-----------||
||--11-------------------------------|-11------------------------------||
||o--9-------------------------------|--9-----------------------------o||
||-----------------------------------|---------------------------------||
|
| PM----------------------------------------------------------|
| S S S S S S S S S S E +Q S S S S S S S S S S E +Q
||-----------------------------------|---------------------------------||
||o--7--7-7-7-7----7-7---7--7-7-(7)--|--7--7-7-7-7----7-7--6-6-6-(6)--o||
||-----------------------------------|---------------------------------||
||-----------------------------------|---------------------------------||
||o----------------------------------|--------------------------------o||
||-----------------------------------|---------------------------------||


F#5 D5/A
Gtr II
PM--------------------------------------------------------------|
S S S S S S S S S S S S S S S S S S S S S S S S S S S S S S S S 4x
||--9-9-9-9-9-9-9-9-9-9-9-9-9-9-9-9-|-5-5-5-5-5-5-5-5-5-5-5-5-5-5-5-5--||
||o---------------------------------|---------------------------------o||
||----------------------------------|----------------------------------||
||----------------------------------|----------------------------------||
||o-9-9-9-9-9-9-9-9-9-9-9-9-9-9-9-9-|-5-5-5-5-5-5-5-5-5-5-5-5-5-5-5-5-o||
||----------------------------------|----------------------------------||
|
| Gtr III
| W W 4x
||----------------------------------|----------------------------------||
||o---------------------------------|---------------------------------o||
||----------------------------------|----------------------------------||
||--4-------------------------------|-0--------------------------------||
||o-4-------------------------------|-0-------------------------------o||
||--2-------------------------------|----------------------------------||


B5 C#5 F#5
Gtrs II, III
PM--| PM--| PM--------------| PM--| PM--|
|-3-| |-3-| |-3-| |-3-| |-3-| |-3-| |-3-|
Q E E E Q E E E Q E E E E E E E E E Q E E E Q E E E
|-------------------|----------------------|-------------------|
|-------------------|----------------------|-------------------|
|-4--------4--------|-6--------------------|-------------------|
|-4--------4--------|-6--------------------|-4--------4--------|
|-2--2-2-2-2--2-2-2-|-4--4-4-4-4-4-4-4-4-4-|-4--------4--------|
|-------------------|----------------------|-2--2-2-2-2--2-2-2-|


A5 B5
PM--------------| PM--| PM--|
|-3-| |-3-| |-3-| |-3-| |-3-|
Q E E E E E E E E E Q E E E Q E E E
|----------------------|-------------------|
|----------------------|-------------------|
|-2--------------------|-4--------4--------|
|-2--------------------|-4--------4--------|
|-0--0-0-0-0-0-0-0-0-0-|-2--2-2-2-2--2-2-2-|
|----------------------|-------------------|


C#5C# F#5 F# F#5 E5
Gtr III
|-3-| |-3-| |-3-| |--3--|
Q E E E E E E E E E Q E E E Q Q
| | | | | | | | | | | | | | | |
/ o / / / / / / / / / o / / / /

Gtr II
~~
|--3--|
W Q E E E Q E E
|----------------------||-----------------------|
|----------------------||-------------14--12p10-|
|----------------------||--9--7h=9-11-----------|
|----------------------||-----------------------|
|----------------------||-----------------------|
|----------------------||-----------------------|
|
| Gtr IV
| ~~
| |--3--|
| W Q E E E Q E E
|----------------------||-----------------------|
|----------------------||-----------------------|
|----------------------||-----------------------|
|----------------------||-11--9h11-12-11---9p=7-|
|----------------------||-----------------------|
|----------------------||-----------------------|


F#5 F# F#5 E5
|-3--|
Q E E E Q Q
| | | | | |
/ o / / / /

~~~~~
|-3--| |-3--| |-3--|
Q E E E E E E E E E
|-------------------------------|
|-12b13--12-10-9-10p9----9------|
|---------------------11---11-9-|
|-------------------------------|
|-------------------------------|
|-------------------------------|
|
| ~~~~~
| |-3--| |-3--| |-3--|
| Q E E E E E E E E E
|-------------------------------|
|-------------------------------|
|-------------------------------|
|--9b10---9--7-6--7p6----6------|
|----------------------9----9-7-|
|-------------------------------|


B5 B B5 B C#5 C#
|-3-| |-3-| |-3-| |-3-| |-3-|
Q E E E Q E E E Q E E E E E E E E E
| | | | | | | | | | | | | | | | | |
/ o / / / o / / / o / / / / / / / /

~ ~~
H Q Q H Q Q
|---------------------|-------------------------|
|---------------------|-------------------------|
|-7---------9--11-----|-10--------11-----13-----|
|---------------------|-------------------------|
|---------------------|-------------------------|
|---------------------|-------------------------|
|
| ~ ~~
| H Q Q H Q Q
|---------------------|-------------------------|
|---------------------|-------------------------|
|---------------------|-------------------------|
|-9--------11--12-----|-11--------13-----15-----|
|---------------------|-------------------------|
|---------------------|-------------------------|


F#5 F# F#5 F# A5 A
|--3--| |-3-| |-3-| |-3-| |-3-|
Q E E E Q E E E Q E E E E E E E E E
| | | | | | | | | | | | | | | | | |
/ / / / / o / / / o / / / / / / / /

~~ ~
|--3--|
Q E E E Q Q H Q Q
|------------------------|----------------------|
|------------------------|----------------------|
|-14--13h14-13-11--9-----|-9--------6-----9-----|
|------------------------|----------------------|
|------------------------|----------------------|
|------------------------|----------------------|
|
| ~~ ~
| |--3--|
| Q E E E Q Q H Q Q
|------------------------|----------------------|
|------------------------|----------------------|
|-11---9h11--9--7--6-----|-6--------------6-----|
|------------------------|----------7-----------|
|------------------------|----------------------|
|------------------------|----------------------|


B5 B B5 B C#5 C# F#5 F# F#5 E5
|-3-| |-3-| |-3-| |-3-| |-3-| |--3--|
Q E E E Q E E E Q E E E E E E E E E Q E E E Q Q
| | | | | | | | | | | | | | | | | | | | | | | |
/ o / / / o / / / o / / / / / / / / / o / / / /

~ ~~ ~~
|--3--| |--3--|
H Q Q H Q Q Q E E E Q E E E
|---------------------|-------------------------|---------------------------|
|---------------------|-------------------------|-----------12-14--12-------|
|-7---------9--11-----|-10--------11-----13-----|-11--13h14-----------14p13-|
|---------------------|-------------------------|---------------------------|
|---------------------|-------------------------|---------------------------|
|---------------------|-------------------------|---------------------------|
|
| ~ ~~ ~~
| |--3--| |--3--|
| H Q Q H Q Q Q E E E Q E E E
|---------------------|-------------------------|---------------------------|
|---------------------|-------------------------|---------------------------|
|---------------------|-------------------------|---------------------------|
|-9--------11--12-----|-11--------13-----15-----|------------9-11---9--7p=6-|
|---------------------|-------------------------|--9--11h12-----------------|
|---------------------|-------------------------|---------------------------|


Pre-Chorus
F#5F# F#5 E5 F#5
Gtr III
|--3--|
Q E E E Q Q W
| | | | | | |
/ o / / / / /

Gtr II
PM--------------------------|
|--3--| |-3-| |-3-|
Q E E E E E E E E E S S S S +S S S S S E S S E S
|-------------------------||--------------------------------|
|-7--9-10-12-10-9-7-9-7---||o-7-7-7-7-(7)-8-7-7-7-7-8-7-7-8-|
|-----------------------9-||--------------------------------|
|-------------------------||--------------------------------|
|-------------------------||o-------------------------------|
|-------------------------||--------------------------------|
|
| |--3--| |-3-| |-3-|
| Q E E E E E E E E E W
|-------------------------||--------------------------------|
|-------------------------||o-------------------------------|
|-------------------------||--------------------------------|
|----6--7--9--7-6-4-6-----||--------------------------------|
|-9-------------------9-7-||o-------------------------------|
|-------------------------||--------------------------------|


A5 B5
W W
| |
/ /

PM----------------------------------------------------------|
S S S S +S S S S S E S S E S S S S S +S S S S S E S S E S
|-------------------------------|--------------------------------|
|-7-7-7-7-(7)-8-7-7-7-7-8-7-7-8-|-7-7-7-7-(7)-8-7-7-7-7-8-7-7-8--|
|-------------------------------|--------------------------------|
|-------------------------------|--------------------------------|
|-------------------------------|--------------------------------|
|-------------------------------|--------------------------------|


D5(type 2) C#5
H H
| |
/ /

PM--------------------------|
S S S S +S S S S S E S S E S
|--------------------------------||-|
|-7-7-7-7-(7)-8-7-7-7-7-8-7-7-8-o||-|
|--------------------------------||-|
|--------------------------------||-|
|-------------------------------o||-|
|--------------------------------||-|


Chorus
F#5 E5
W W
| |
/ /

~~ ~~
E S S E E S S S S E E E S S E E S S S S E E
||-----------------------------------|------------------------------------|
||o----14-14-14----14h15p14p12----14-|----14-14-14----14h15p14p12---------|
||--11----------11-------------14----|-11----------11-------------14-13---|
||-----------------------------------|------------------------------------|
||o----------------------------------|------------------------------------|
||-----------------------------------|------------------------------------|


B5
W
|
/

~~
E S S E E S S S S E E
|----------------------------------|
|----14-14-14----14h15p14p12----14-|
|-11----------11-------------14----|
|----------------------------------|
|----------------------------------|
|----------------------------------|


1.,2.,3. 4.
A5 B5 A5 B5
H H H H
| | | |
/ / / /

~~ ~~ ~~ ~~ ~~ ~~
E S S E E E. S +E E 4x E S S E E E. S +E E
|----------------14--12-(12)-----||----------------14--12-(12)----|
|----14-14-14----------------15-o||----14-14-14----------------14-|
|-11----------11-----------------||-11----------11----------------|
|--------------------------------||-------------------------------|
|-------------------------------o||-------------------------------|
|--------------------------------||-------------------------------|


Guitar Solo2
F#5 C#5 D5
Gtr III
H H W
| | |
/ / /

Gtr II
~~~~~~~~~~~~~~~~ ~~ ~~~
H H H S S E S S E
||-14----------|-------------------------|
||-------14----|-15----15-14-12-12-------|
||-------------|-------------------14-12-|
||-------------|-------------------------|
||-------------|-------------------------|
||-------------|-------------------------|
|
| Gtr IV
| ~~~~~~~~~~~~~~~~ ~~ ~~~
| H H H S S E S S E
||-------------|-------------------------|
||-------------|-------------------------|
||-11----------|-------------------------|
||-------11----|-12----12-11--9--9-------|
||-------------|-------------------12-10-|
||-------------|-------------------------|


F#5 C#5 D5
H H W
| | |
/ / /

~~~~~~~~~~~~~~~~~~ ~~ ~~
H H H S S E S S E
|-------------|--------------------------|
|-------14----|-15----15-14-12-----------|
|-11----------|----------------16-14-12--|
|-------------|--------------------------|
|-------------|--------------------------|
|-------------|--------------------------|
|
|~~~~~~~~~~~~~~~~~~ ~~ ~~
| H H H S S E S S E
|-------------|--------------------------|
|-------------|--------------------------|
|-------------|--------------------------|
|-------11----|-12----12-11--9--9--------|
|--9----------|-------------------12-10--|
|-------------|--------------------------|


G#5 Eb5
H H
| |
/ /

~~
Q S S S S S S S S S S S S
|--------------------------------------|
|-----16-17-14-16-12-14-11-12-9-11-8-9-|
|-13-----------------------------------|
|--------------------------------------|
|--------------------------------------|
|--------------------------------------|
|
| ~~
| Q S S S S S S S S S S S S
|--------------------------------------|
|--------------------------------------|
|--------------------------------------|
|--6--13-14-11-13--9-11--8--9-6--8-5-6-|
|--------------------------------------|
|--------------------------------------|


E5(type 3) B5(tBb5(tyG#52) Eb5
H Q Q H H
| | | | |
/ / / / /

~ ~~~~~~~~~~~~~ ~~
Q S S S S Q Q Q. S S Q S S S S
|-----------------------|-------------14--12h14p12p11--|
|------------11-12--11--|-12----16h17------------------|
|-9--9h11h13------------|------------------------------|
|-----------------------|------------------------------|
|-----------------------|------------------------------|
|-----------------------|------------------------------|
|
| ~ ~~~~~~~~~~~~~ ~~
| Q S S S S Q Q Q. S S Q S S S S
|-----------------------|------------------------------|
|-----------------------|------------------------------|
|-----------------------|------------------------------|
|-------------8--9---8--|--9----13h14-16--14h16p14p13--|
|-7--7h=9-11------------|------------------------------|
|-----------------------|------------------------------|


E5(type 3) B5(tBb5(tyA5(type 2)
H Q Q S S S S E E H
| | | | | | | |
/ / / / / / / /

~~ ~~~~~~ ~~~~
Q Q Q Q S S S S Q +Q +Q
|--------------------|-17-17-17-17-17b20====(17)r=(17)--|
|-14--14b16r=12--14--|----------------------------------|
|--------------------|----------------------------------|
|--------------------|----------------------------------|
|--------------------|----------------------------------|
|--------------------|----------------------------------|
|
| ~~ ~~~~~~ ~~~~
| Q Q Q Q S S S S Q +Q +Q
|--------------------|----------------------------------|
|--------------------|----------------------------------|
|--------------------|-14-14-14-14-14b17====(14)r=(14)--|
|-11--11b13r==9--11--|----------------------------------|
|--------------------|----------------------------------|
|--------------------|----------------------------------|


G#5
S S S S E E H
| | | | |
/ / / / /

~~~
S S S S S S S S Q. S S
|-16h17p16----------------------------|
|----------18-17h18p17-15-17----17-15-|
|-------------------------------------|
|-------------------------------------|
|-------------------------------------|
|-------------------------------------|
|
| ~~~
| S S S S S S S S Q. S S
|-------------------------------------|
|-------------------------------------|
|-13h14p13----------------------------|
|----------15-14h15p14-12-14----------|
|-------------------------------19-17-|
|-------------------------------------|


G5 D5 C5
S S S S E E H S S S S E E S S S S E E
| | | | | | | | | | | | | | |
/ / / / / / / / / / / / / / /

~~~ ~~~~ ~~~ ~~~ ~~~~ ~~~ ~~~~
E. S +E E E. S S S E E. S +E E E. S +E E
|------------------------------------|---------------------------------------|
|-13------15-(15)-17-15--13h15p13-12-|---------12-(12)-13-12-----------------|
|------------------------------------|-14-------------------------14-(14)-12-|
|------------------------------------|---------------------------------------|
|------------------------------------|---------------------------------------|
|------------------------------------|---------------------------------------|
|
| ~~~ ~~~~ ~~~ ~~~ ~~~~ ~~~ ~~~~
| E. S +E E E. S S S E E. S +E E E. S +E E
|------------------------------------|---------------------------------------|
|------------------------------------|---------------------------------------|
|------------------------------------|---------------------------------------|
|-10------12-(12)-14-12--10h12p10--9-|--7-------9--(9)-10--9-------7--(7)--5-|
|------------------------------------|---------------------------------------|
|------------------------------------|---------------------------------------|


A Ab
S S S S S S S S S S S S S S S S S S S S S S S S S S S S S S S S
| | | | | | | | | | | | | | | | | | | | | | | | | | | | | | | |
o / / / / / / / / / / / / / / / o / / / / / / / / / / / / / / /

S S S S S S S S S S S S S S S S S S S S S S S S S S S S S S S S
|-8p5-8p5-8p5-10p5-8p5-8p5-8p5-10p5-|-7p4-7p4-7p4-8p4-7p4-7p4-7p4-8p4-|
|-----------------------------------|---------------------------------|
|-----------------------------------|---------------------------------|
|-----------------------------------|---------------------------------|
|-----------------------------------|---------------------------------|
|-----------------------------------|---------------------------------|
|
| S S S S S S S S S S S S S S S S S S S S S S S S S S S S S S S S
|-5p0-5p0-5p0--7p0-5p0-5p0-5p0--7p0-|-4p0-4p0-4p0-5p0-4p0-4p0-4p0-5p0-|
|-----------------------------------|---------------------------------|
|-----------------------------------|---------------------------------|
|-----------------------------------|---------------------------------|
|-----------------------------------|---------------------------------|
|-----------------------------------|---------------------------------|


G
S S S S S S S S S S S S S S S S
| | | | | | | | | | | | | | | |
o / / / / / / / / / / / / / / /

TP TP TP TP TP TP TP TP TP TP TP TP
|----3----| |----3----| |----3----| |----3----|
E E E E E E E E E E E E
|-12---10---12---13---12---13---15---13---15---17---15---17---|
|-------------------------------------------------------------|
|-------------------------------------------------------------|
|-------------------------------------------------------------|
|-------------------------------------------------------------|
|-------------------------------------------------------------|
|
| TP TP TP TP TP TP TP TP TP TP TP TP
| |----3----| |----3----| |----3----| |----3----|
| E E E E E E E E E E E E
|-------------------------------------------------------------|
|-13---12---13---15---13---15---17---15---17---18---17---18---|
|-------------------------------------------------------------|
|-------------------------------------------------------------|
|-------------------------------------------------------------|
|-------------------------------------------------------------|


F E
S S S S S S S S S S S S S S S S
| | | | | | | | | | | | | | | |
o / / / / / / / o / / / / / / /

~~ ~~~~
Q E S S H
|-17-----------19p17-[16]---------------|
|---------------------------------------|
|---------------------------------------|
|---------------------------------------|
|---------------------------------------|
|---------------------------------------|
|
| ~~ ~~~~
| Q E S S H
|---------------------------------------|
|-18-----------20p18-[17]---------------|
|---------------------------------------|
|---------------------------------------|
|---------------------------------------|
|---------------------------------------|


A
S S S S S S S S S S S S S S S S
| | | | | | | | | | | | | | | |
o / / / / / / / / / / / / / / /

S S S S S S S S S S S S S S S S
|-20p17-20p17-20p17-22p17-20p17-20p17-20p17-22p17-|
|-------------------------------------------------|
|-------------------------------------------------|
|-------------------------------------------------|
|-------------------------------------------------|
|-------------------------------------------------|
|
| S S S S S S S S S S S S S S S S
|--5p=0--5p=0--5p=0--7p=0--5p=0--5p=0--5p=0--7p=0-|
|-------------------------------------------------|
|-------------------------------------------------|
|-------------------------------------------------|
|-------------------------------------------------|
|-------------------------------------------------|


Ab
S S S S S S S S S S S S S S S S
| | | | | | | | | | | | | | | |
o / / / / / / / / / / / / / / /

S S S S S S S S S S S S S S S S
|-19p16-19p16-19p16-20p16-19p16-19p16-19p16-20p16-|
|-------------------------------------------------|
|-------------------------------------------------|
|-------------------------------------------------|
|-------------------------------------------------|
|-------------------------------------------------|
|
| S S S S S S S S S S S S S S S S
|--4p=0--4p=0--4p=0--5p=0--4p=0--4p=0--4p=0--5p=0-|
|-------------------------------------------------|
|-------------------------------------------------|
|-------------------------------------------------|
|-------------------------------------------------|
|-------------------------------------------------|


G
S S S S S S S S S S S S S S S S
| | | | | | | | | | | | | | | |
o / / / / / / / / / / / / / / /

E. S E E E. S S S E
|------------------------13b15r====13-12p10h12---|
|------------------------------------------------|
|-16b17r====14-13---14---------------------------|
|------------------------------------------------|
|------------------------------------------------|
|------------------------------------------------|
|
| E. S E E E. S S S E
|------------------------------------------------|
|------------------------15b17r====15-13p12h13---|
|------------------------------------------------|
|------------------------------------------------|
|-14b15r====12-11---12---------------------------|
|------------------------------------------------|


F E
S S S S S S S S S S S S S S S S
| | | | | | | | | | | | | | | |
o / / / / / / / o / / / / / / /

~~
Q. S S H
|-16b17-----------16-16-16---------------|
|----------------------------------------|
|----------------------------------------|
|----------------------------------------|
|----------------------------------------|
|----------------------------------------|
|
| ~~
| Q. S S H
|----------------------------------------|
|-17b18-----------17-17-17---------------|
|----------------------------------------|
|-14b15-----------14-14-14---------------|
|----------------------------------------|
|----------------------------------------|


lead
F#5
W
|
/

~~~~~~~
E S S E E +E S S E E
||----------------------------------|
||o----------14---------------------|
||-----13h14----14-(14)-13h14p13----|
||--16---------------------------14-|
||o---------------------------------|
||----------------------------------|
|
| ~~~~~~~
| E S S E E +E S S E E
||----------------------------------|
||o---------------------------------|
||----------------------------------|
||-----------11---------------------|
||o----11h12----12-(12)-11h12p11----|
||--14---------------------------12-|


D5(type 2)
+W W
| |
/ /

~~~~~~~ ~~ ~~~~~~~ ~~~
E S S E E +E S S E S S E S S E E +E S S E E
|---------------------12-12-12-------|---------------------------------|
|----------14------------------15p14-|----------14---------------------|
|----13h14----14-(14)----------------|----13h14----14-(14)-13h14-13----|
|-16---------------------------------|-16---------------------------14-|
|------------------------------------|---------------------------------|
|------------------------------------|---------------------------------|
|
| ~~~~~~~ ~~ ~~~~~~~
| E S S E E +E S S E S S E S S E E +E S S E E
|------------------------------------|---------------------------------|
|------------------------------------|---------------------------------|
|------------------------------------|---------------------------------|
|----------11---------14-14-14-12p11-|----------11---------------------|
|----11h12----12-(12)----------------|----11h12----12-(12)-11h12p11----|
|-14---------------------------------|-14---------------------------12-|


Verse
D5(type 2) B5 C#5
W W W
|
/

~~~~~~~ ~~ PM----| PM----|
E S S E E +E S S Q S S S S Q H S S S S Q H
|---------------------14-14-14---||-||-----------------|-----------------|
|----------14-------------------o||-||-----------------|-----------------|
|-11-13h14----14-(14)------------||-||---------4-------|---------6-------|
|--------------------------------||-||---------4-------|---------6-------|
|-------------------------------o||-||-2-2-2-2-2-------|-4-4-4-4-4-------|
|--------------------------------||-||-----------------|-----------------|
|
| ~~ PM----| PM----|
| E S S E E +E S S Q S S S S Q H S S S S Q H
|--------------------------------||-||-----------------|-----------------|
|-------------------------------o||-||-----------------|-----------------|
|---------------------11-11-11---||-||---------4-------|---------6-------|
|----------11--------------------||-||---------4-------|---------6-------|
|----11h12----12-(12)-----------o||-||-2-2-2-2-2-------|-4-4-4-4-4-------|
|-14-----------------------------||-||-----------------|-----------------|


Gtrs II, III
PM--------------------------------------------------------------|
S S S S S S S S S S S S S S S S S S S S S S S S S S S S S S S S
|---------------------------------|---------------------------------|
|---------------------------------|---------------------------------|
|---------------------------------|---------------------------------|
|---------------------------------|---------------------------------|
|---------------------------------|-0-0-0-0-0-0-0-0-0-0-0-0-0-0-0-0-|
|-2-2-2-2-2-2-2-2-2-2-2-2-2-2-2-2-|---------------------------------|


B5
PM----| PM----| PM|
E S S S S E S S S S E S S
|---------------------------|
|---------------------------|
|-4---------4---------4-----|
|-4---------4---------4-----|
|-2-2-2-2-2-2-2-2-2-2-2-2-2-|
|---------------------------|


C#5 F#5 E5
PM----| PM----| PM| PM----| PM----| PM|
E S S S S E S S S S E S S E S S S S E S S S S E S S
|---------------------------|---------------------------|
|---------------------------|---------------------------|
|-6---------6---------6-----|---------------------------|
|-6---------6---------6-----|-4---------4---------2-----|
|-4-4-4-4-4-4-4-4-4-4-4-4-4-|-4---------4---------2-----|
|---------------------------|-2-2-2-2-2-2-2-2-2-2-0-0-0-|


Pre-Chorus
F#5 E5 F#5 A5 B5
PM----| PM----| PM|
E S S S S E S S S S E S S W W W
|---------------------------||----------|----------|------|
|---------------------------||----------|----------|------|
|---------------------------||----------|-2--------|-4----|
|-4---------4---------2-----||-4--------|-2--------|-4----|
|-4---------4---------2-----||-4--------|-0--------|-2----|
|-2-2-2-2-2-2-2-2-2-2-0-0-0-||-2--------|----------|------|


D5 C#5 F#
PM----------------------------|
H H S S S S S S S S S S S S S S S S
|-----------|---------------------------------|
|-----------|---------------------------------|
|-7----6----|---------------------------------|
|-7----6----|---------------------------------|
|-5----4----|---------------------------------|
|-----------|-2-2-2-2-2-2-2-2-2-2-2-2-2-2-2-2-|


A B5 D5 C#5
PM----------------------------| PM----| PM----| PM|
S S S S S S S S S S S S S S S S E S S S S E S S S S E S S H H
|---------------------------------|---------------------------|-----------||
|---------------------------------|---------------------------|-----------||
|---------------------------------|-4---------4---------4-----|-7----6----||
|---------------------------------|-4---------4---------4-----|-7----6----||
|-0-0-0-0-0-0-0-0-0-0-0-0-0-0-0-0-|-2-2-2-2-2-2-2-2-2-2-2-2-2-|-5----4----||
|---------------------------------|---------------------------|-----------||


Chorus
F#5
Gtr III
W
|
/

Gtr II
~~
E S S E E S S S S E E
||-----------------------------------|
||o----14-14-14----14h15p14p12----14-|
||--11----------11-------------14----|
||-----------------------------------|
||o----------------------------------|
||-----------------------------------|


E5 B5
W W
| |
/ /

~~ ~~
E S S E E S S S S E E E S S E E S S S S E E
|----------------------------------|----------------------------------|
|----14-14-14----14h15p14p12-------|----14-14-14----14h15p14p12----14-|
|-11----------11-------------14-13-|-11----------11-------------14----|
|----------------------------------|----------------------------------|
|----------------------------------|----------------------------------|
|----------------------------------|----------------------------------|


1.,2.,3.
A5 B5
H H
| |
/ /

~~ ~~
E S S E E E. S +E E 4x
|----------------14--12-(12)-----||
|----14-14-14----------------15-o||
|-11----------11-----------------||
|--------------------------------||
|-------------------------------o||
|--------------------------------||


4.
A5 B5 F#5
H H W +W
| | | |
/ / / /

~~ ~
E S S E E E. S +E E W +W
|----------------14--12-(12)-9-|-----------|---------|
|----14-14-14------------------|-----------|---------|
|-11----------11---------------|-11--------|-(11)----|
|------------------------------|-----------|---------|
|------------------------------|-----------|---------|
|------------------------------|-----------|---------|


F#5 F5
S S S S S S S S S S E +Q S S S S S S S S S S E +Q
| | | | | | | | | | | | | | | | | | | | |
/ / / / / / / / / / / / / / / / / / / / /

Gtr I
Q. E +H Q. E H 8x
||----------------------------------|--------------------------------||
||o---------------10---(10)---------|---------------10----9---------o||
||--11------------11---(11)---------|-11------------11---10----------||
||--11------------------------------|-11-----------------------------||
||o--9------------------------------|--9----------------------------o||
||----------------------------------|--------------------------------||
|
| Gtr II
| PM-----------------------| PM---------------------|
| S S S S S S S S S S E Q S S S S S S S S S S E Q 8x
||----------------------------------|--------------------------------||
||o--7--7-7-7-7----7-7---7--7-7-----|--7--7-7-7-7----7-7--6-6-6-----o||
||----------------------------------|--------------------------------||
||----------------------------------|--------------------------------||
||o---------------------------------|-------------------------------o||
||----------------------------------|--------------------------------||



Duration Legend
---------------
W - whole; H - half; Q - quarter; E - 8th; S - 16th; T - 32nd; X - 64th; a - acciaccatura
+ - note tied to previous; . - note dotted; .. - note double dotted
Uncapitalized letters represent notes that are staccato (1/2 duration)
Irregular groupings are notated above the duration line
Duration letters will always appear directly above the note/fret number it represents the
duration for. Duration letters with no fret number below them represent rests. Multi-
bar rests are notated in the form Wxn, where n is the number of bars to rest for. Low
melody durations appear below the staff

Tablature Legend
----------------
h - hammer-on
p - pull-off
b - bend
pb - pre-bend
r - bend release (if no number after the r, then release immediately)
/ - slide into or out of (from/to "nowhere")
s - legato slide
S - shift slide
- natural harmonic
[n] - artificial harmonic
n(n) - tapped harmonic
~ - vibrato
tr - trill
T - tap
TP - trem. picking
PM - palm muting
n/ - tremolo bar dip; n = amount to dip
n - tremolo bar down
n/ - tremolo bar up
/n - tremolo bar inverted dip
= - hold bend; also acts as connecting device for hammers/pulls
<> - volume swell (louder/softer)
x - on rhythm slash represents muted slash
o - on rhythm slash represents single note slash

Misc Legend
-----------
| - bar
|| - double bar
||o - repeat start
o|| - repeat end
*| - double bar (ending)
: - bar (freetime)
$ - Segno
& - Coda
Tempo markers - = BPM(8/16=s8/s16), where s8 = swing 8ths, s16 = swing 16ths

-----------------------------
|  , ,   |
|     http://akords.org     |
-----------------------------

 (: 0)
    :
  • The Bards Song The Hobbit
  • Traveler In Time
  • What It Takes
  • Under A Violet Moon
  • Big Gun
  •  
    , . '.

    ':*
    E-Mail:*
    :
    , : *
     
      

    BLIBL-