|  
 
:  
  : :  
      ?    

  |

akords.org » B » Blind Guardian » Ill Keep The Ring

Blind Guardian - Ill Keep The Ring 

Intro (Clean Tone. Let ring)

|0-----------------------------------------------------------|
|----0---------------------------------------0---------------|
|--------0-------------------0-----------0------------3------|
|------------0-----------0-----------4-----------------------|
|--------------------2-----------1---------------------------|
|----------------3-------------------------------------------|


|0---------------------------------------------------------------|
|----0---------------------------------------0---------------0---|
|--------0-------------------0-----------0-------2-------2-------|
|------------0-----------0-----------4---------------4-----------|
|--------------------2-----------2-------------------------------|
|----------------3-----------------------------------------------|


|0-----------------------------------------------------------|
|----0---------------------------------------0---------------|
|--------0-------------------0-----------0------------3------|
|------------0-----------0-----------4-----------------------|
|--------------------2-----------1---------------------------|
|----------------3-------------------------------------------|


|------------0-------------------------------0-----------------|
|----------------3-----------------------1-------1---0---------|
|--------5-----------5---4---0---------------------------------|
|----5-------------------------------2-------------------------|
|3-------------------------------0-----------------------------|
|--------------------------------------------------------------|

Am G
There are signs on the ring
C Em
which make me feel so down
Am C
there's one to enslave all rings
G Em
to find them all in time
Am G
and drive them into darkness
G F Am
forever they'll be bound
Am Em
Three for the Kings
G H7
of the elves high in light
C F
nine to the mortal
Am
which cry

(Em D Hm7 C )
(I'll keep the ring for sorrow)
(I'll keep the ring till I die)
(I'll keep the ring for sorrow)
(I'll keep the ring till I die)

[Solo: Markus]
Em D Hm7 C
Slow down and I sail on the river
Slow down and I walk to the hill
D Am
And there's no way out
Mordor
C F
Dark land under Sauron's spell
Am G Am
threatened a long time
threatened a long time

F
Seven rings to the gnomes
in their halls made of stone
Em D
into the valley
E Am
I feel down
Em G
One ring for the dark lord's hand
D Em
sitting on his throne
Em D C D
in the land so dark
Hm C
where I've to go

(C Em D Hm7 )
(I'll keep the ring )
(I'll keep the ring )
(I'll keep the ring )
(I'll keep the ring )

[Solo: Markus]

Em D Hm7 C
Slow down and I sail on the river
Slow down and I walk to the hill

D Em
Lord of the rings

-----------------------------
|  , ,   |
|     http://akords.org     |
-----------------------------

 (: 0)
    :
  • Ring, Ring
  • Family Reunion
  • Carousel
  • Road Runner
  • Anthem Part Two
  •  
    , . '.

    ':*
    E-Mail:*
    :
    , : *
     
      

    BLIBL-