|  
 
:  
  : :  
      ?    

  |

akords.org » B » Blind Guardian » Harvest Of Sorrow

Blind Guardian - Harvest Of Sorrow 

-----------------------------------------------------------------------------
BLIND GUARDIAN - HARVEST OF SORROW

Tabbed by Poglia

-----------------------------------------------------------------------------

Tuning: Eb

Chords used:

Bm C D Em G
e|---2---0---2---0---3---|
B|---3---1---3---0---0---|
G|---4---0---2---0---0---|
D|---4---2---0---2---0---|
A|---2---3---0---2---2---|
E|---x---X---X---0---3---|

-----------------------------------------------------------------------------

Em D Em
Em D Em
Em D Em
Em D Em

Em D
She is gone
Em
Leaves are falling down
Em D Em
The tear maiden will not return
Em D Em
The seal of oblivion is broken
Em D Em
And a pure love's been turned into sin

C
At the dawn of our living time
Bm
Hope may cover all cries
C
Truth lurks hidden in the shadows
Bm C Em
Dreams might be filled with lies
C Em
Soon there will be night
C Em C Em C
Pain remains inside

Em D Em
Suddenly it seemed so clear
Em D Em
All the blindness was taken away
Em D
She closed her eyes
Em
And she called out my name
Em D Em
She was never ever never ever seen again

G D
Harvest of sorrow
C
Your seed is grown
Em Bm C
In a frozen world full of cries
G D
When the ray of light shrinks
C Em D C
Shall cold winter nights begin

D Em G Bm
D Em G Bm
D Em G Bm
D Em G Bm

Em D
She is gone
Em
And I fall from grace
Em D Em
No healing charm covers my wounds
Em
Fooled's the dawn
D
And so I am
Em
Fooled by life and a bitter doom
Em D Em
To bring you the end of the day

C
At the dawn of our living time
Bm
Hope it soon will pass by
C
Facing a darkness
G D
I stand alone

G D
Harvest of sorrow
C
Your seed is grown
Em Bm C
In a frozen world full of cries
G D
When the ray of light shrinks
C Em D C
Shall cold winter nights begin

D Em G Bm
D Em G Bm
Em G Em C
Em G Em C
Em G Em C
Em G Em C Em

-----------------------------------------------------------------------------

For questions or correction feel free to email me at poglia88@gmail.com

-----------------------------------------------------------------------------

-----------------------------
|  , ,   |
|     http://akords.org     |
-----------------------------

 (: 0)
    :
  • Snowblind
  • Harvest Of Sorrow
  • Mordreds Song
  • Snowblind
  • Bright Eyes
  •  
    , . '.

    ':*
    E-Mail:*
    :
    , : *
     
      

    BLIBL-