|  
 
:  
  : :  
      ?    

  |

akords.org » B » Blind Guardian » Curse Of Fanor

Blind Guardian - Curse Of Fanor 

Note:This is not my work,I submit it 'cause of a lack of proper tab for this
song.This for the rhythm guitar...

The Curse Of Feanor


Blind Guardian
Marcus Siepen



W H H W
D#||-------------------|--------------------|-------------------|
A#||-------------------|--------------------|-------------------|
F#||-------------------|--------------------|-------------------|
C#||--2----------------|--3-----------------|--2----------------|
G#||--0----------------|--1--------5--------|--0----------------|
D#||-------------------|-----------3--------|-------------------|


W S S S S S S S S S S S S S S S S
-------------------|----------------------------------|
-------------------|----------------------------------|
-------------------|----------------------------------|
--L----------------|----------------------------------|
--L----------------|----------------------------------|
-------------------|--5-5---5-5---5-5---5-5---6---3---|


S S S S S S S S S S S S S S S S S S S S S S S S S S S S S S S S
----------------------------------|----------------------------------|
----------------------------------|----------------------------------|
----------------------------------|----------------------------------|
----------------------------------|----------------------------------|
----------------------------------|----------------------------------|
--5-5---5-5---5-5---5-5---6---3---|--5-5---5-5---5-5---5-5---6---3---|


S S S S S S S S S S S S S S S S S S S S S S S S S S S S S S S S
----------------------------------|----------------------------------|
----------------------------------|----------------------------------|
----------------------------------|----------------------------------|
----------------------------------|----------------------------------|
----------------------------------|----------------------------------|
--5-5---5-5---5-5---5-5---6---3---|--5-5---5-5---5-5---5-5---6---3---|


S S S S S S S S S S S S S S S S S S S S S S S S S S S S S S S S
----------------------------------|----------------------------------|
----------------------------------|----------------------------------|
----------------------------------|----------------------------------|
----------------------------------|----------------------------------|
----------------------------------|----------------------------------|
--5-5---5-5---5-5---5-5---6---3---|--5-5---5-5---5-5---5-5---6---3---|


S S S S S S S S S S S S S S S S S S S S S S S S S S S S E E
----------------------------------|--------------------------------|
----------------------------------|--------------------------------|
----------------------------------|--------------------------------|
----------------------------------|--------------------------3--2--|
----------------------------------|--5-5-5-5-5-5-5-5-5-5-5-5-1--0--|
--5-5---5-5---5-5---5-5---6---3---|--------------------------------|


S S S S S S S S S S S S E E S S S S S S S S S S S S E E
--------------------------------|--------------------------------|
--------------------------------|--------------------------------|
--------------------------------|--------------------------------|
--------------------------3--5--|--------------------------3--2--|
--5-5-5-5-5-5-5-5-5-5-5-5-1--3--|--5-5-5-5-5-5-5-5-5-5-5-5-1--0--|
--------------------------------|--------------------------------|


E. E. Q. Q S S S S S S S S S S S S E E
----------------------|--------------------------------|
----------------------|--------------------------------|
-----------------5----|--------------------------------|
--7---5---3------3----|--------------------------3--2--|
--5---3---1-----------|--5-5-5-5-5-5-5-5-5-5-5-5-1--0--|
----------------------|--------------------------------|


S S S S S S S S S S S S E E S S S S S S S S S S S S E E
--------------------------------|--------------------------------|
--------------------------------|--------------------------------|
--------------------------------|--------------------------------|
--------------------------3--5--|--------------------------3--2--|
--5-5-5-5-5-5-5-5-5-5-5-5-1--3--|--5-5-5-5-5-5-5-5-5-5-5-5-1--0--|
--------------------------------|--------------------------------|


E. E. Q. Q S S S S S S S S S S S S E E
----------------------|--------------------------------|
----------------------|--------------------------------|
----------------------|--------------------------------|
----------3------2----|--------------------------3--2--|
--5---3---1------0----|--5-5-5-5-5-5-5-5-5-5-5-5-1--0--|
--3---1---------------|--------------------------------|


S S S S S S S S S S S S E E S S S S S S S S S S S S E E
--------------------------------|--------------------------------|
--------------------------------|--------------------------------|
--------------------------------|--------------------------------|
--------------------------3--5--|--------------------------3--2--|
--5-5-5-5-5-5-5-5-5-5-5-5-1--3--|--5-5-5-5-5-5-5-5-5-5-5-5-1--0--|
--------------------------------|--------------------------------|


E. E. Q. Q S S S S S S S S S S S S E E
----------------------|--------------------------------|
----------------------|--------------------------------|
-----------------5----|--------------------------------|
--7---5---3------3----|--------------------------3--2--|
--5---3---1-----------|--5-5-5-5-5-5-5-5-5-5-5-5-1--0--|
----------------------|--------------------------------|


S S S S S S S S S S S S E E S S S S S S S S S S S S E E
--------------------------------|--------------------------------|
--------------------------------|--------------------------------|
--------------------------------|--------------------------------|
--------------------------3--5--|--------------------------3--2--|
--5-5-5-5-5-5-5-5-5-5-5-5-1--3--|--5-5-5-5-5-5-5-5-5-5-5-5-1--0--|
--------------------------------|--------------------------------|


E. E. Q. Q H. S S E W
----------------------|----------------------|-------------------|
----------------------|----------------------|-------------------|
----------------------|----------------------|-------------------|
----------3------2----|--2-------------------|-------------------|
--5---3---1------0----|--0------------3---3--|--L----------------|
--3---1---------------|---------------1-x-1--|--L----------------|


H. S S E W H. S S E
----------------------|-------------------|----------------------|
----------------------|-------------------|----------------------|
----------------------|-------------------|----------------------|
--5-------------------|-------------------|--2-------------------|
--3------------3---5--|--L----------------|--0------------3---3--|
---------------1-x-3--|--L----------------|---------------1-x-1--|


W H. S S E W
-------------------|----------------------|-------------------|
-------------------|----------------------|-------------------|
-------------------|----------------------|-------------------|
-------------------|----------------------|-------------------|
--L----------------|--2------------3---2--|--L----------------|
--L----------------|--0------------1-x-0--|--L----------------|


H. S S E W H. S S E
----------------------|-------------------|----------------------|
----------------------|-------------------|----------------------|
----------------------|-------------------|----------------------|
--2-------------------|-------------------|--5-------------------|
--0------------3---3--|--L----------------|--3------------3---5--|
---------------1-x-1--|--L----------------|---------------1-x-3--|


W H. S S E W
-------------------|----------------------|-------------------|
-------------------|----------------------|-------------------|
-------------------|----------------------|-------------------|
-------------------|--2-------------------|-------------------|
--L----------------|--0------------3---3--|--L----------------|
--L----------------|---------------1-x-1--|--L----------------|


W S S S S S S S S S S S S S S S S
-------------------|----------------------------------|
-------------------|----------------------------------|
-------------------|----------------------------------|
-------------------|----------------------------------|
--2----------------|--2---2---2---2---2---2---2---2---|
--0----------------|--0---0---0---0---0---0---0---0---|


H. E E H. E E H. S S E
----------------------|----------------------|----------------------|
----------------------|----------------------|----------------------|
----------------------|----------------------|----------------------|
--7------------9--10--|--L------------L------|----------------------|
--5------------7---8--|--L------------L--10--|--7------------5---5--|
----------------------|-------------------8--|--5------------3-x-3--|


W H. E E H. E E
-------------------|----------------------|---------------------|
-------------------|----------------------|---------------------|
-------------------|----------------------|---------------------|
-------------------|--7------------9--10--|--L------------2--4--|
--L----------------|--5------------7---8--|--L------------0--2--|
--L----------------|----------------------|---------------------|


W W H. Q
-------------------|-------------------|--------------------|
-------------------|-------------------|--------------------|
-------------------|-------------------|--------------------|
--5----------------|-------------------|--------------------|
--3----------------|--5----------------|--3------------3----|
-------------------|--3----------------|--1------------1----|


H. E E H. S S E W
---------------------|----------------------|-------------------|
---------------------|----------------------|-------------------|
---------------------|----------------------|-------------------|
---------------------|----------------------|-------------------|
--3------------3--5--|--7------------3---5--|--L----------------|
--1------------1--3--|--5------------1-x-3--|--L----------------|


H. Q W W
--------------------|--------------------|--------------------|
--------------------|--------------------|--------------------|
--------------------|--------------------|--------------------|
--7------------9----|--10----------------|--------------------|
--5------------7----|---8----------------|--10----------------|
--------------------|--------------------|---8----------------|


W E E Q E E Q E E E E Q Q
-------------------|--------------------------|------------------------|
-------------------|--------------------------|------------------------|
-------------------|--------------------------|------------------------|
-------------------|---------4-----------4----|--------2--1--0---------|
--5----------------|--0h--2--2----0h--2--2----|--2--2-------------0----|
--3----------------|--------------------------|------------------------|


E E Q E E Q E E E E H
--------------------------|-----------------------|
--------------------------|-----------------------|
--------------------------|-----------------------|
---------4-----------4----|--------2--1--0--------|
--0h--2--2----0h--2--2----|--2--2-----------------|
--------------------------|-----------------------|


E E Q E E Q E E E E Q Q
--------------------------|------------------------|
--------------------------|------------------------|
--------------------------|------------------------|
---------4-----------4----|--------2--1--0---------|
--0h--2--2----0h--2--2----|--2--2-------------0----|
--------------------------|------------------------|


E E Q E E Q E E E E H
--------------------------|-----------------------|
--------------------------|-----------------------|
--------------------------|-----------------------|
---------4-----------4----|--------2--1--0--------|
--0h--2--2----0h--2--2----|--2--2-----------------|
--------------------------|-----------------------|


S S S S Q S S S S Q S S S S S S S S S S Q E
----------------------------|------------------------------|
----------------------------|------------------------------|
----------------------------|----------------------4-------|
----------6------------6----|----------------------2----4--|
--4-4-4-4-4----4-4-4-4-4----|--1-1-1-1-1-1-2-2-2-2------2--|
----------------------------|------------------------------|


S S S S Q S S S S Q S S S S S S S S S S Q E
----------------------------|------------------------------|
----------------------------|------------------------------|
----------------------------|----------------------4-------|
----------6------------6----|----------------------2----4--|
--4-4-4-4-4----4-4-4-4-4----|--1-1-1-1-1-1-2-2-2-2------2--|
----------------------------|------------------------------|


S S S S Q S S S S Q S S S S S S S S S S Q E
----------------------------|------------------------------|
----------------------------|------------------------------|
----------------------------|----------------------4-------|
----------6------------6----|----------------------2----6--|
--4-4-4-4-4----4-4-4-4-4----|--1-1-1-1-1-1-2-2-2-2------4--|
----------------------------|------------------------------|


S S S S Q S S S S Q S S S S S S S S S S Q E
----------------------------|------------------------------|
----------------------------|------------------------------|
----------------------------|----------------------4-------|
----------6------------6----|----------------------2----4--|
--4-4-4-4-4----4-4-4-4-4----|--1-1-1-1-1-1-2-2-2-2------2--|
----------------------------|------------------------------|


S S S S S S S S S S S S E E S S S S S S S S S S S S E E
--------------------------------|--------------------------------|
--------------------------------|--------------------------------|
--------------------------------|--------------------------------|
--------------------------3--2--|--------------------------3--5--|
--5-5-5-5-5-5-5-5-5-5-5-5-1--0--|--5-5-5-5-5-5-5-5-5-5-5-5-1--3--|
--------------------------------|--------------------------------|


S S S S S S S S S S S S E E E. E. Q. Q
--------------------------------|----------------------|
--------------------------------|----------------------|
--------------------------------|-----------------5----|
--------------------------3--2--|--7---5---3------3----|
--5-5-5-5-5-5-5-5-5-5-5-5-1--0--|--5---3---1-----------|
--------------------------------|----------------------|


S S S S S S S S S S S S E E S S S S S S S S S S S S E E
--------------------------------|--------------------------------|
--------------------------------|--------------------------------|
--------------------------------|--------------------------------|
--------------------------3--2--|--------------------------3--5--|
--5-5-5-5-5-5-5-5-5-5-5-5-1--0--|--5-5-5-5-5-5-5-5-5-5-5-5-1--3--|
--------------------------------|--------------------------------|


S S S S S S S S S S S S E E E. E. Q. Q
--------------------------------|----------------------|
--------------------------------|----------------------|
--------------------------------|----------------------|
--------------------------3--2--|----------3------2----|
--5-5-5-5-5-5-5-5-5-5-5-5-1--0--|--5---3---1------0----|
--------------------------------|--3---1---------------|


H. E E H. E E H. S S E
----------------------|----------------------|----------------------|
----------------------|----------------------|----------------------|
----------------------|----------------------|----------------------|
--7------------9--10--|--L------------L------|----------------------|
--5------------7---8--|--L------------L--10--|--7------------5---5--|
----------------------|-------------------8--|--5------------3-x-3--|


W H. Q W
-------------------|--------------------|--------------------|
-------------------|--------------------|--------------------|
-------------------|--------------------|--------------------|
-------------------|--7------------9----|--10----------------|
--L----------------|--5------------7----|---8----------------|
--L----------------|--------------------|--------------------|


W W H. E E
-------------------|-------------------|---------------------|
-------------------|-------------------|---------------------|
-------------------|-------------------|---------------------|
--5----------------|-------------------|---------------------|
--3----------------|--5----------------|--3------------3--3--|
-------------------|--3----------------|--1------------1--1--|


H. E E H. S S E W
---------------------|----------------------|-------------------|
---------------------|----------------------|-------------------|
---------------------|----------------------|-------------------|
---------------------|----------------------|-------------------|
--L------------3--5--|--7------------3---5--|--L----------------|
--L------------1--3--|--5------------1-x-3--|--L----------------|


H. E E W W
----------------------|-------------------|-------------------|
----------------------|-------------------|-------------------|
----------------------|-------------------|-------------------|
--7------------9--10--|--L----------------|--5----------------|
--5------------7---8--|--L----------------|--3----------------|
----------------------|-------------------|-------------------|


W E E E E S S S S S S S S E E E Q Q.
-------------------|------------------------------|-----------------------|
-------------------|------------------------------|-----------------------|
-------------------|------------------------------|-----------------------|
-------------------|--2--3--2---------------------|--2--3--2-------5------|
--5----------------|--0--1--0-----0-0-0-0-0-0-0-0-|--0--1--0-------3------|
--3----------------|------------------------------|-----------------------|


E E E E S S S S S S S S E E E Q Q.
------------------------------|-----------------------|
------------------------------|-----------------------|
------------------------------|-----------------------|
--2--3--2---------------------|--2--3--2-------5------|
--0--1--0-----0-0-0-0-0-0-0-0-|--0--1--0-------3------|
------------------------------|-----------------------|


W W
--------------------|-------------------|
--------------------|-------------------|
--------------------|-------------------|
--------------------|-------------------|
--5S----------------|--L----------------|
--3S----------------|--L----------------|


S S S S S S S S S S S S S S S S S S S S S S S S S S S S S S S S
----------------------------------|----------------------------------|
----------------------------------|----------------------------------|
----------------------------------|----------------------------------|
----------------------------------|----------------------------------|
--5-5---5-5---5-5---5-5---6---3---|--5-5---5-5---5-5---5-5---6---3---|
----------------------------------|----------------------------------|


S S S S S S S S S S S S S S S S S S S S S S S S S S S S S S S S
----------------------------------|----------------------------------|
----------------------------------|----------------------------------|
----------------------------------|----------------------------------|
----------------------------------|----------------------------------|
--5-5---5-5---5-5---5-5---6---3---|--5-5---5-5---5-5---5-5---6---3---|
----------------------------------|----------------------------------|


S S S S S S S S S S S S S S S S S S S S S S S S S S S S S S S S
----------------------------------|----------------------------------|
----------------------------------|----------------------------------|
----------------------------------|----------------------------------|
----------------------------------|----------------------------------|
--5-5---5-5---5-5---5-5---6---3---|--5-5---5-5---5-5---5-5---6---3---|
----------------------------------|----------------------------------|


S S S S S S S S S S S S S S S S S S S S S S S S S S S S S S S S
----------------------------------|----------------------------------|
----------------------------------|----------------------------------|
----------------------------------|----------------------------------|
----------------------------------|----------------------------------|
--5-5---5-5---5-5---5-5---6---3---|--5-5---5-5---5-5---5-5---6---3---|
----------------------------------|----------------------------------|


S S S S S S S S S S S S S S S S S S S S S S S S S S S S S S S S
----------------------------------|----------------------------------|
----------------------------------|----------------------------------|
----------------------------------|----------------------------------|
----------------------------------|----------------------------------|
--7-7---7-7---7-7---7-7---8---5---|--7-7---7-7---7-7---7-7---8---5---|
----------------------------------|----------------------------------|


S S S S S S S S S S S S S S S S S S S S S S S S S S S S S S S S
----------------------------------|----------------------------------|
----------------------------------|----------------------------------|
----------------------------------|----------------------------------|
----------------------------------|----------------------------------|
--7-7---7-7---7-7---7-7---8---5---|--7-7---7-7---7-7---7-7---8---5---|
----------------------------------|----------------------------------|


S S S S S S S S S S S S S S S S S S S S S S S S S S S S S S S S
----------------------------------|----------------------------------|
----------------------------------|----------------------------------|
----------------------------------|----------------------------------|
----------------------------------|----------------------------------|
--7-7---7-7---7-7---7-7---8---5---|--7-7---7-7---7-7---7-7---8---5---|
----------------------------------|----------------------------------|


S S S S S S S S S S S S S S S S S S S S S S S S S S S S S S S S
----------------------------------|----------------------------------|
----------------------------------|----------------------------------|
----------------------------------|----------------------------------|
----------------------------------|----------------------------------|
--7-7---7-7---7-7---7-7---8---5---|--7-7---7-7---7-7---7-7---8---5---|
----------------------------------|----------------------------------|


S S S S S S S S S S S S S S S S S S S S S S S S Q Q
----------------------------------|----------------------------|
----------------------------------|----------------------------|
----------------------------------|------------------4---------|
----------------------------------|------------------2----2----|
--2-2-2-2-2-2-2-2-2-2-2-2-2-2-2-2-|--2-3-3-3-3-3-3-3------0----|
----------------------------------|----------------------------|


E H. E W
---------------------|-------------------|
---------------------|-------------------|
---------------------|-------------------|
--4------------------|-------------------|
--2------------------|-------------------|
---------------------|-------------------|


S S S S S S S S S S S S S S S S S S S S S S S S S S S S S S S S
----------------------------------|----------------------------------|
----------------------------------|----------------------------------|
----------------------------------|----------------------------------|
----------------------------------|--2-x-2-x-2-2-x-2-5-x-5-----------|
--2-x-2-x-2-2-x-2-2-x-2-2-x-2-2-x-|------------------------3-x-3-3-x-|
----------------------------------|----------------------------------|


E H. E W S S S S S S S S S S S S E E
---------------------|-------------------|--------------------------------|
---------------------|-------------------|--------------------------------|
---------------------|-------------------|--------------------------------|
---------------------|-------------------|--------------------------3--2--|
--2------------------|-------------------|--5-5-5-5-5-5-5-5-5-5-5-5-1--0--|
---------------------|-------------------|--------------------------------|


S S S S S S S S S S S S E E S S S S S S S S S S S S E E
--------------------------------|--------------------------------|
--------------------------------|--------------------------------|
--------------------------------|--------------------------------|
--------------------------3--5--|--------------------------3--2--|
--5-5-5-5-5-5-5-5-5-5-5-5-1--3--|--5-5-5-5-5-5-5-5-5-5-5-5-1--0--|
--------------------------------|--------------------------------|


E. E. Q. Q S S S S S S S S S S S S E E
----------------------|--------------------------------|
----------------------|--------------------------------|
-----------------5----|--------------------------------|
--7---5---3------3----|--------------------------3--2--|
--5---3---1-----------|--5-5-5-5-5-5-5-5-5-5-5-5-1--0--|
----------------------|--------------------------------|


S S S S S S S S S S S S E E S S S S S S S S S S S S E E
--------------------------------|--------------------------------|
--------------------------------|--------------------------------|
--------------------------------|--------------------------------|
--------------------------3--5--|--------------------------3--2--|
--5-5-5-5-5-5-5-5-5-5-5-5-1--3--|--5-5-5-5-5-5-5-5-5-5-5-5-1--0--|
--------------------------------|--------------------------------|


E. E. Q. Q H. E E H. E E
----------------------|----------------------|----------------------|
----------------------|----------------------|----------------------|
----------------------|----------------------|----------------------|
----------3------2----|--7------------9--10--|--L------------L------|
--5---3---1------0----|--5------------7---8--|--L------------L--10--|
--3---1---------------|----------------------|-------------------8--|


H. S S E W H. Q
----------------------|-------------------|--------------------|
----------------------|-------------------|--------------------|
----------------------|-------------------|--------------------|
----------------------|-------------------|--7------------9----|
--7------------5---5--|--L----------------|--5------------7----|
--5------------3-x-3--|--L----------------|--------------------|


W W W
--------------------|-------------------|-------------------|
--------------------|-------------------|-------------------|
--------------------|-------------------|-------------------|
--10----------------|--5----------------|-------------------|
---8----------------|--3----------------|--5----------------|
--------------------|-------------------|--3----------------|


H. E E H. E E H. S S E
---------------------|---------------------|----------------------|
---------------------|---------------------|----------------------|
---------------------|---------------------|----------------------|
---------------------|---------------------|----------------------|
--3------------3--3--|--L------------3--5--|--7------------3---5--|
--1------------1--1--|--L------------1--3--|--5------------1-x-3--|


W H. E E W
-------------------|----------------------|-------------------|
-------------------|----------------------|-------------------|
-------------------|----------------------|-------------------|
-------------------|--7------------9--10--|--L----------------|
--L----------------|--5------------7---8--|--L----------------|
--L----------------|----------------------|-------------------|


W W S S S S S S S S S S S S S S S S
-------------------|-------------------|----------------------------------|
-------------------|-------------------|----------------------------------|
-------------------|-------------------|----------------------------------|
--5----------------|-------------------|--7-7---7-7---7-8---8-8---5---5---|
--3----------------|--5----------------|----------------------------------|
-------------------|--3----------------|--5-5---5-5---5-6---6-6---3---3---|


S S S S S S S S S S S S S S S S S S S S S S S S S S S S S S S S
----------------------------------|----------------------------------|
----------------------------------|----------------------------------|
----------------------------------|----------------------------------|
--7-7---7-7---7-8---8-8---5---5---|--7-7---7-7---7-8---8-8---5---5---|
----------------------------------|----------------------------------|
--5-5---5-5---5-6---6-6---3---3---|--5-5---5-5---5-6---6-6---3---3---|


S S S S S S S S S S S S S S S S S S S S S S S S S S S S S S S S
----------------------------------|----------------------------------|
----------------------------------|----------------------------------|
----------------------------------|----------------------------------|
--7-7---7-7---7-8---8-8---5---5---|----------------------------------|
----------------------------------|------------------3-3-3-3-3-3-3-3-|
--5-5---5-5---5-6---6-6---3---3---|--5-5-5-5-5-5-5-5-----------------|


E E Q E E Q S S S S S S S S S S S S S S S S
--------------------------|----------------------------------|
--------------------------|----------------------------------|
--------------------------|----------------------------------|
--9--10--9----9--10--9----|----------------------------------|
--7---8--7----7---8--7----|----------------------------------|
--------------------------|--5-5-5-5-5-5-5-5-1-1-1-1-1-1-1-1-|


E E Q E E Q S S S S S S S S S S S S S S S S
------------------------|----------------------------------|
------------------------|----------------------------------|
------------------------|----------------------------------|
--7--9--9----7--9--9----|----------------------------------|
--5--7--7----5--7--7----|------------------3-3-3-3-3-3-3-3-|
------------------------|--5-5-5-5-5-5-5-5-----------------|


E E Q E E Q S S S S S S S S S S S S S S S S
--------------------------|----------------------------------|
--------------------------|----------------------------------|
--------------------------|----------------------------------|
--9--10--9----9--10--9----|----------------------------------|
--7---8--7----7---8--7----|----------------------------------|
--------------------------|--5-5-5-5-5-5-5-5-1-1-1-1-1-1-1-1-|


E E Q E E Q S S S S S S S S S S S S S S S S
------------------------|----------------------------------|
------------------------|----------------------------------|
------------------------|----------------------------------|
--7--9--9----7--9--9----|----------------------------------|
--5--7--7----5--7--7----|--2-2-2-2-2-2-2-2-2-2-2-2-2-2-2-2-|
------------------------|----------------------------------|


S S S S S S S S S S S S S S S S S S S S S S S S S S S S S S S S
----------------------------------|----------------------------------|
----------------------------------|----------------------------------|
----------------------------------|----------------------------------|
----------------------------------|----------------------------------|
--0-0-0-0-0-0-0-0-0-0-0-0-0-0-0-0-|--5-5-5-5-5-5-5-5-5-5-5-5-5-5-5-5-|
----------------------------------|----------------------------------|


S S S S S S S S S S S S S S S S S S S S S S S S S S S S S S S S
----------------------------------|----------------------------------|
----------------------------------|----------------------------------|
----------------------------------|----------------------------------|
----------------------------------|----------------------------------|
----------------------------------|----------------------------------|
--3-3-3-3-3-3-3-3-5-5-5-5-5-5-5-5-|--6-6-6-6-6-6-6-6-6-6-6-6-6-6-6-6-|


S S S S S S S S S S S S S S S S S S S S S S S S S S S S S S S S
----------------------------------|----------------------------------|
----------------------------------|----------------------------------|
----------------------------------|----------------------------------|
----------------------------------|----------------------------------|
----------------------------------|--3-3-3-3-3-3-3-3-3-3-3-3-3-3-3-3-|
--3-3-3-3-3-3-3-3-3-3-3-3-3-3-3-3-|----------------------------------|


S S S S S S S S S S S S S S S S W W
----------------------------------|-------------------|-------------------|
----------------------------------|-------------------|-------------------|
----------------------------------|-------------------|-------------------|
----------------------------------|--7----------------|--L----------------|
--4-4-4-4-4-4-4-4-4-4-4-4-4-4-4-4-|--5----------------|--L----------------|
----------------------------------|-------------------|-------------------|


E E Q E E Q E E E E Q Q
--------------------------|------------------------|
--------------------------|------------------------|
--------------------------|------------------------|
---------4-----------4----|--------2--1--0---------|
--0h--2--2----0h--2--2----|--2--2-------------0----|
--------------------------|------------------------|


E E Q E E Q E E E E H
--------------------------|-----------------------|
--------------------------|-----------------------|
--------------------------|-----------------------|
---------4-----------4----|--------2--1--0--------|
--0h--2--2----0h--2--2----|--2--2-----------------|
--------------------------|-----------------------|


E E Q E E Q E E E E Q Q
--------------------------|------------------------|
--------------------------|------------------------|
--------------------------|------------------------|
---------4-----------4----|--------2--1--0---------|
--0h--2--2----0h--2--2----|--2--2-------------0----|
--------------------------|------------------------|


E E Q E E Q E E E E H
--------------------------|-----------------------|
--------------------------|-----------------------|
--------------------------|-----------------------|
---------4-----------4----|--------2--1--0--------|
--0h--2--2----0h--2--2----|--2--2-----------------|
--------------------------|-----------------------|


S S S S Q S S S S Q S S S S S S S S S S Q E
----------------------------|------------------------------|
----------------------------|------------------------------|
----------------------------|----------------------4-------|
----------6------------6----|----------------------2----4--|
--4-4-4-4-4----4-4-4-4-4----|--1-1-1-1-1-1-2-2-2-2------2--|
----------------------------|------------------------------|


S S S S Q S S S S Q S S S S S S S S S S Q E
----------------------------|------------------------------|
----------------------------|------------------------------|
----------------------------|----------------------4-------|
----------6------------6----|----------------------2----4--|
--4-4-4-4-4----4-4-4-4-4----|--1-1-1-1-1-1-2-2-2-2------2--|
----------------------------|------------------------------|


S S S S Q S S S S Q S S S S S S S S S S Q E
----------------------------|------------------------------|
----------------------------|------------------------------|
----------------------------|----------------------4-------|
----------6------------6----|----------------------2----6--|
--4-4-4-4-4----4-4-4-4-4----|--1-1-1-1-1-1-2-2-2-2------4--|
----------------------------|------------------------------|


S S S S Q S S S S Q S S S S S S S S S S Q E
----------------------------|------------------------------|
----------------------------|------------------------------|
----------------------------|----------------------4-------|
----------6------------6----|----------------------2----4--|
--4-4-4-4-4----4-4-4-4-4----|--1-1-1-1-1-1-2-2-2-2------2--|
----------------------------|------------------------------|


H. E E H. E E H. S S E
----------------------|----------------------|----------------------|
----------------------|----------------------|----------------------|
----------------------|----------------------|----------------------|
--7------------9--10--|--L------------L------|----------------------|
--5------------7---8--|--L------------L--10--|--7------------5---5--|
----------------------|-------------------8--|--5------------3-x-3--|


W H. E E H. E E
-------------------|----------------------|---------------------|
-------------------|----------------------|---------------------|
-------------------|----------------------|---------------------|
-------------------|--7------------9--10--|--L------------2--4--|
--L----------------|--5------------7---8--|--L------------0--2--|
--L----------------|----------------------|---------------------|


W W H. Q
-------------------|-------------------|--------------------|
-------------------|-------------------|--------------------|
-------------------|-------------------|--------------------|
--5----------------|-------------------|--------------------|
--3----------------|--5----------------|--3------------3----|
-------------------|--3----------------|--1------------1----|


H. E E H. S S E W
---------------------|----------------------|-------------------|
---------------------|----------------------|-------------------|
---------------------|----------------------|-------------------|
---------------------|----------------------|-------------------|
--3------------3--5--|--7------------3---5--|--L----------------|
--1------------1--3--|--5------------1-x-3--|--L----------------|


H. Q W W
--------------------|--------------------|--------------------|
--------------------|--------------------|--------------------|
--------------------|--------------------|--------------------|
--7------------9----|--10----------------|--------------------|
--5------------7----|---8----------------|--10----------------|
--------------------|--------------------|---8----------------|


W S S S S S S S S S S S S S S S S
-------------------|----------------------------------|
-------------------|----------------------------------|
-------------------|----------------------------------|
-------------------|----------------------------------|
--5----------------|----------------------------------|
--3----------------|--5-5-5-5-5---5-5---5-3---6---5---|


S S S S S S S S S S S S S S S S S S S S S S S S S S S S S S S S
----------------------------------|----------------------------------|
----------------------------------|----------------------------------|
----------------------------------|----------------------------------|
----------------------------------|----------------------------------|
----------------------------------|----------------------------------|
--5-5-5-5-5---5-5---5-3---6---8---|--5-5-5-5-5---5-5---5-3---6---5---|


S S S S S S S S S S S S S S S S S S S S S S S S S S S S S S S S
----------------------------------|----------------------------------|
----------------------------------|----------------------------------|
----------------------------------|----------------------------------|
----------------------------------|----------------------------------|
----------------------------------|----------------------------------|
--5-5-5-5-5---5-5---5-3---6---8---|--5-5-5-5-5---5-5---5-3---6---5---|


S S S S S S S S S S S S S S S S S S S S S S S S S S S S S S S S
----------------------------------|----------------------------------|
----------------------------------|----------------------------------|
----------------------------------|----------------------------------|
----------------------------------|----------------------------------|
----------------------------------|----------------------------------|
--5-5-5-5-5---5-5---5-3---6---8---|--5-5-5-5-5---5-5---5-3---6---5---|


S S S S S S S S S S S S S S S S W
----------------------------------|--------------------|
----------------------------------|--------------------|
----------------------------------|--------------------|
----------------------------------|--------------------|
----------------------------------|--5S----------------|
--5-5-5-5-5---5-5---5-3---6---8---|--3S----------------|


W Q H.
-------------------|--------------------||
-------------------|--------------------||
-------------------|--------------------||
-------------------|--------------------||
--L----------------|--7-----------------||
--L----------------|--5-----------------||




Duration Legend
---------------
W - whole
H - half
Q - quarter
E - 8th
S - 16th
T - 32nd
X - 64th
. - note dotted
|-n-| - n-tuplets


Tablature Legend
----------------
L - tied note
x - dead note
g - grace note
(n) - ghost note
NH - natural harmonic
AH - artificial harmonic
TH - tapped harmonic
SH - semi harmonic
PH - pitch harmonic
h - hammer on
p - pull off
b - bend
br - bendRelease
pb - preBend
pbr - preBendRelease
brb - bendReleaseBend
n/ - tremolo bar dip
n - tremolo bar dive
-/n - tremolo bar Release up
/n - tremolo bar inverted dip
/n - tremolo bar return
-n - tremolo bar Release down
S - shift slide
s - legato slide
/ - slide into from below or out of upwards
- slide into from above or out of downwards
~ - vibrato
W - wide vibrato
tr - trill
TP - tremolo picking
T - tapping
S - slap
P - pop
< - fade in
^ - brush up
v - brush down

-----------------------------
|  , ,   |
|     http://akords.org     |
-----------------------------

 (: 0)
    :
  • You See Me Crying
  • Innocence 2
  • What Kinda Love Are You On
  • You Aint Got A Hold On Me
  • The Farm
  •  
    , . '.

    ':*
    E-Mail:*
    :
    , : *
     
      

    BLIBL-