|  
 
:  
  : :  
      ?    

  |

akords.org » B » Blind Guardian » By The Gates Of Moria

Blind Guardian - By The Gates Of Moria 2

#----------------------------------PLEASE NOTE---------------------------------#
#This file is the author's own work and represents their interpretation of the #
#song. You may only use this file for private study, scholarship, or research. #
#------------------------------------------------------------------------------#

BY THE GATES OF MORIA
As recorded by Blind Guardian
(From the 1988 Album BATTALIONS OF FEAR)

Transcribed by Drimascus_God_Of_Thunder


Words by No words in it! Music by Andr Olbrich

Gtr I (E A D G B E) - 'Markus'
Gtr II (E A D G B E) - 'Andr'

Intro
Q=91 Double Time Q=178
B5 C5 B5 C5 B5C5B5C5 E5
4/4 2/4 4/4
Gtr I
Q q Q q E E E E S S S S S S S S S S S S S S S S W +W
|-------------|-------------------------|-----------------|----------|--------|
|-------------|-------------------------|-----------------|----------|--------|
|-4--5--4--5--|-4-5-4-5-4-5-4-5-4-5-4-5-|-4-5-4-5-4-5-4-5-|-9--------|-(9)----|
|-4--5--4--5--|-4-5-4-5-4-5-4-5-4-5-4-5-|-4-5-4-5-4-5-4-5-|-9--------|-(9)----|
|-2--3--2--3--|-2-3-2-3-2-3-2-3-2-3-2-3-|-2-3-2-3-2-3-2-3-|-7--------|-(7)----|
|-------------|-------------------------|-----------------|----------|--------|
|
| Gtr II
| W W S S S S S S S S W +W
|-------------|-------------------------|-----------------|----------|--------|
|-------------|-------------------------|-----------------|----------|--------|
|-------------|-------------------------|-4-5-4-5-4-5-4-5-|-9--------|-(9)----|
|-------------|-------------------------|-2-3-2-3-2-3-2-3-|-9--------|-(9)----|
|-------------|-------------------------|-----------------|-7--------|-(7)----|
|-------------|-------------------------|-----------------|----------|--------|


Lead1
C5 C5
S S S S S S S S S S S S S S S S S S S S S S S S S S S S S S S S
|-----------------------------------------|-----------------------------------------|
|-----------------------------------------|-----------------------------------------|
|-----------------------------------------|-----------------------------------------|
|-----------------------------------------|-----------------------------------------|
|--3--3--3--3-3-3-3-3--3--3--3--3-3-3-3-3-|--3--3--3--3-3-3-3-3--3--3--3--3-3-3-3-3-|
|-----------------------------------------|-----------------------------------------|
|
| S S S S S S S S S S S S S S S S S S S S S S S S S S S S S S S S
|-----------------------------------------|-----------------------------------------|
|-----------------------------------------|-----------------------------------------|
|-----------------------------------------|-----------------------------------------|
|-----------------------------------------|-----------------------------------------|
|-10-10-10-10-9-9-9-9-10-10-10-10-9-9-9-9-|-10-10-10-10-9-9-9-9-10-10-10-10-9-9-9-9-|
|-----------------------------------------|-----------------------------------------|


E5
W +W
|------------------|-----------------------|
|------------------|-----------------------|
|-9----------------|-(9)-------------------|
|-9----------------|-(9)-------------------|
|-7----------------|-(7)-------------------|
|------------------|-----------------------|
|
| Q. E E E E E Q E E E E E E
|------------------|-----------------------|
|------------------|-----------------------|
|------------------|-----------------------|
|------------------|------9-7--------------|
|-7----9-10-9-7----|--7-------10-9-7-------|
|---------------10-|-----------------10----|


C5 Cb5 C5 Cb5
S S S S S S S S S S S S S S S S
|-----------------------------------------|
|-----------------------------------------|
|-----------------------------------------|
|-----------------------------------------|
|--3--3--3--3-3-3-3-3--3--3--3--3-3-3-3-3-|
|-----------------------------------------|
|
| S S S S S S S S S S S S S S S S
|-----------------------------------------|
|-----------------------------------------|
|-----------------------------------------|
|-----------------------------------------|
|-10-10-10-10-9-9-9-9-10-10-10-10-9-9-9-9-|
|-----------------------------------------|


C5 Cb5 C5 Cb5 E5
S S S S S S S S S S S S S S S S W +W
|-----------------------------------------|------------|--------------|
|-----------------------------------------|------------|--------------|
|-----------------------------------------|-9----------|-(9)----------|
|-----------------------------------------|-9----------|-(9)----------|
|--3--3--3--3-3-3-3-3--3--3--3--3-3-3-3-3-|-7----------|-(7)----------|
|-----------------------------------------|------------|--------------|
|
| S S S S S S S S S S S S S S S S H H H H
|-----------------------------------------|------------|--------------|
|-----------------------------------------|------------|--------12----|
|-----------------------------------------|-9----11----|-12-----------|
|-----------------------------------------|------------|--------------|
|-10-10-10-10-9-9-9-9-10-10-10-10-9-9-9-9-|------------|--------------|
|-----------------------------------------|------------|--------------|


C5
S S S S S S S S S S S S S S S S
|-------------------------------------------------------------|
|-------------------------------------------------------------|
|-------------------------------------------------------------|
|-------------------------------------------------------------|
|--3-3----3----3--3-3----3----3--3-3----3----3--3-3----3----3-|
|-------------------------------------------------------------|
|
| |-----------6------------| |-----------6------------|
| E E E E E E E E E E E E
|-13---12---10---12---10--------10----------------------------|
|--------------------------13--------13---12---13---12---10---|
|-------------------------------------------------------------|
|-------------------------------------------------------------|
|-------------------------------------------------------------|
|-------------------------------------------------------------|


A5
S S S S S S S S S S S S S S S S W +W
|------------------------------------------------------|------------|--------------|
|------------------------------------------------------|------------|--------------|
|------------------------------------------------------|-2----------|-(2)----------|
|------------------------------------------------------|-2----------|-(2)----------|
|--3-3----3----3--3-3----3----3--3-3----3---3--3-3-3-3-|-0----------|-(0)----------|
|------------------------------------------------------|------------|--------------|
|
| |-----------6------------| |---3----|
| E E E E E E E E E Q H H H H
|------------------------------------------------------|------------|--------------|
|------10----------------------------------------------|------------|--------10----|
|-12--------12---11---12---11---12---11---9------------|-9----11----|-12-----------|
|---------------------------------------------13-------|------------|--------------|
|------------------------------------------------------|------------|--------------|
|------------------------------------------------------|------------|--------------|


G5 F5 E5 D5
W W W +H H
|-------------|-------------|----------|---------------------|
|-------------|-------------|----------|---------------------|
|-------------|-------------|----------|-----------7---------|
|--5----------|--3----------|-2--------|-(2)-------7---------|
|--5----------|--3----------|-2--------|-(2)-------5---------|
|--3----------|--1----------|-0--------|-(0)-----------------|
|
| H H H H W +H Q +Q
|-------------|-------------|----------|---------/12--(12)--|
|-12----10----|-------------|----------|---------------------|
|-------------|-12----10----|-9--------|-(9)----------------|
|-------------|-------------|----------|---------------------|
|-------------|-------------|----------|---------------------|
|-------------|-------------|----------|---------------------|


Half Time E=178 Double Time Q=178
E5 D5 C5 Cb5 C5 Cb5
H H S S S S S S S S S S S S S S S S
|---------------------|-----------------------------------------|
|---------------------|-----------------------------------------|
|-9---------7---------|-----------------------------------------|
|-9---------7---------|-----------------------------------------|
|-7---------5---------|--3--3--3--3-3-3-3-3--3--3--3--3-3-3-3-3-|
|---------------------|-----------------------------------------|
|
| Q E E Q E +E S S S S S S S S S S S S S S S S
|---------------------|-----------------------------------------|
|---------------------|-----------------------------------------|
|-9--11-12-11--9-(9)-|-----------------------------------------|
|---------------------|-----------------------------------------|
|---------------------|-10-10-10-10-9-9-9-9-10-10-10-10-9-9-9-9-|
|---------------------|-----------------------------------------|


C5 C6 C5 Cb5
S S S S S S S S S S S S S S S S
|-----------------------------------------------|
|-----------------------------------------------|
|-----------------------------------------------|
|-----------------------------------------------|
|--3--3--3--3--3--3--3--3--3--3--3--3-3-3-3-3---|
|-----------------------------------------------|
|
| S S S S S S S S S S S S S S S S
|-----------------------------------------------|
|-----------------------------------------------|
|-----------------------------------------------|
|-----------------------------------------------|
|-10-10-10-10-12-12-12-12-10-10-10-10-9-9-9-9---|
|-----------------------------------------------|


Half Time E=178 Double Time Q=178
E5 D5 C5
H H S S S S S S S S S S S S S S S S
|----------------------------------|-----------------------------------------|
|----------------------------------|-----------------------------------------|
|-9---------7----------------------|-----------------------------------------|
|-9---------7----------------------|-----------------------------------------|
|-7---------5----------------------|--3--3--3--3-3-3-3-3--3--3--3--3-3-3-3-3-|
|----------------------------------|-----------------------------------------|
|
| Q E E E S S S E. S S S S S S S S S S S S S S S S
|----------------------------------|-----------------------------------------|
|----------10----10-10b11.5r10b12-|-----------------------------------------|
|-9--11-12----12-------------------|-----------------------------------------|
|----------------------------------|-----------------------------------------|
|----------------------------------|-10-10-10-10-9-9-9-9-10-10-10-10-9-9-9-9-|
|----------------------------------|-----------------------------------------|


S S S S S S S S S S S S S S S S
|----------------------------------------------|
|----------------------------------------------|
|----------------------------------------------|
|----------------------------------------------|
|--3--3--3--3--3--3--3--3--3--3--3--3-3-3-3-3--|
|----------------------------------------------|
|
| S S S S S S S S S S S S S S S S
|----------------------------------------------|
|----------------------------------------------|
|----------------------------------------------|
|----------------------------------------------|
|-10-10-10-10-12-12-12-12-10-10-10-10-9-9-9-9--|
|----------------------------------------------|


E.=178
E5 F5
W W
|-----------------------------|------------------------------|
|-----------------------------|------------------------------|
|-----------------------------|------------------------------|
|--2--------------------------|--3---------------------------|
|--2--------------------------|--3---------------------------|
|--0--------------------------|--1---------------------------|
|
| |------6-------| |------6------|
| E E E E E E E +E Q E E E E E E E +E Q
|-12--------------------------|-13---------------------------|
|----12-----------------------|----13------------------------|
|-------12-11-12-11-9-(9)----|-------14-10-14-9-10-(10)----|
|-----------------------------|------------------------------|
|-----------------------------|------------------------------|
|-----------------------------|------------------------------|


G5 E5 B5 G5 A5 B5
Q Q Q Q H H
|-------------------------------------|---------------------------------|
|-------------------------------------|---------------------------------|
|--------------------4----------------|--2-----------------4------------|
|--5--------2--------4--------5-------|--2-----------------4------------|
|--5--------2--------2--------5-------|--0-----------------2------------|
|--3--------0-----------------3-------|---------------------------------|
|
| |------6-------| |------6-------| |------6-------|
| E E E E E E E E E E E E E E E E E E Q +E E
|-------------------------------------|---------------------------------|
|-10-------12----------------10-------|-------10-12-10------------------|
|----11-------12----12----------11----|-11-12----------12-11--(11)-----|
|-------12-------14----12----------12-|---------------------------------|
|-------------------------14----------|---------------------------------|
|-------------------------------------|---------------------------------|


Bridge
Q=178
E5
W W
|------------------|------------------|
|------------------|------------------|
|-9----------------|-9----------------|
|-9----------------|-9----------------|
|-7----------------|-7----------------|
|------------------|------------------|
|
| Q. E E E E E Q E E E E E E
|------------------|------------------|
|------------------|------------------|
|------------------|------------------|
|------------------|----9-7-----------|
|-7----9-10-9-7----|-7------10-9-7----|
|---------------10-|---------------10-|


E S S S S S S S S S S S S S S S S S S S S S S S S S S S S S S
|----------------------------------|-----------------------------------|
|----------------------------------|-----------------------------------|
|-9--------------------------------|-----------------------------------|
|-9--------------------------------|-----------------------------------|
|-7--7-7-7-7-7-7--7-7-7-7-7-7--7-7-|-7-7-7-7-7-7-7-7--7-7-7-7-7-7--7-7-|
|----------------------------------|-----------------------------------|
|
| Q. E E E E E Q E E E E E E
|----------------------------------|-----------------------------------|
|----------------------------------|-----------------------------------|
|----------------------------------|-----------------------------------|
|----------------------------------|---------9---7---------------------|
|-7----------9---10---9---7--------|-7---------------10---9---7--------|
|-----------------------------10---|------------------------------10---|


E5 E5
W W
|------------------|------------------|
|------------------|------------------|
|-9----------------|-9----------------|
|-9----------------|-9----------------|
|-7----------------|-7----------------|
|------------------|------------------|
|
| Q. E E E E E Q E E E E E E
|------------------|------------------|
|------------------|------------------|
|------------------|------------------|
|------------------|----9-7-----------|
|-7----9-10-9-7----|-7------10-9-7----|
|---------------10-|---------------10-|


E5
E S S S S S S S S S S S S S S S S S S S S S S S S S S S S S S
|----------------------------------|-----------------------------------|
|----------------------------------|-----------------------------------|
|-9--------------------------------|-----------------------------------|
|-9--------------------------------|-----------------------------------|
|-7--7-7-7-7-7-7--7-7-7-7-7-7--7-7-|-7-7-7-7-7-7-7-7--7-7-7-7-7-7--7-7-|
|----------------------------------|-----------------------------------|
|
| Q. E E E E E Q E E E E E E
|----------------------------------|-----------------------------------|
|----------------------------------|-----------------------------------|
|----------------------------------|-----------------------------------|
|----------------------------------|---------9---7---------------------|
|-7----------9---10---9---7--------|-7---------------10---9---7--------|
|-----------------------------10---|------------------------------10---|


F#5 G5 A5 F#G5 F#5 G5 A5 C5 F#5 G5 A5 F#G5 F#5 G5 A5 D5
E E E E E E E E E E E E E E Q E E E E E E E E E E E E E E Q
|-----------------|----------------|-----------------|----------------|
|-----------------|----------------|-----------------|----------------|
|-----------------|-------------5--|-----------------|-------------7--|
|-4---5---7---4-5-|-4---5---7---5--|-4---5---7---4-5-|-4---5---7---7--|
|-4---5---7---4-5-|-4---5---7---3--|-4---5---7---4-5-|-4---5---7---5--|
|-2-2-3-3-5-5-2-3-|-2-2-3-3-5-5----|-2-2-3-3-5-5-2-3-|-2-2-3-3-5-5----|


F#5 G5 A5 F#G5 F#5 G5 A5 C5 F#5 G5 A5 F#G5 F#5 G5 A5 B5
E E E E E E E E E E E E E E Q E E E E E E E E E E E E E E Q
|-----------------|----------------|-----------------|----------------|
|-----------------|----------------|-----------------|----------------|
|-----------------|-------------5--|-----------------|-------------4--|
|-4---5---7---4-5-|-4---5---7---5--|-4---5---7---4-5-|-4---5---7---4--|
|-4---5---7---4-5-|-4---5---7---3--|-4---5---7---4-5-|-4---5---7---2--|
|-2-2-3-3-5-5-2-3-|-2-2-3-3-5-5----|-2-2-3-3-5-5-2-3-|-2-2-3-3-5-5----|


Q=79
E5 B5 G5
+W W W W
|------------|------------------|----------|--------------------|
|------------|------------------|----------|--------------------|
|-(4)--------|------------------|-4--------|--------------------|
|-(4)--------|--2---------------|-4--------|--5-----------------|
|-(2)--------|--2---------------|-2--------|--5-----------------|
|------------|--0---------------|----------|--3-----------------|
|
| Gtr II
| W E +H Q. W H +Q. S S
|------------|------------------|----------|--------------------|
|------------|------------------|----------|-----------------15-|
|------------|-16-(16)---------|----------|-16----(16)--------|
|------------|-16-(16)---------|----------|--------------------|
|------------|------------------|----------|--------------------|
|------------|------------------|----------|--------------------|


C5
W
|------------------------------------------------------|
|------------------------------------------------------|
|--5---------------------------------------------------|
|--5---------------------------------------------------|
|--3---------------------------------------------------|
|------------------------------------------------------|
|
| ~~~~~~~
| S S E. S T T a E S S S +E +E
|------------------------------------------------------|
|-15b17-15b17-15b17-15-13-15-13-12-13-12---------------|
|----------------------------------------14-(14)-(14)-|
|------------------------------------------------------|
|------------------------------------------------------|
|------------------------------------------------------|


Q=158
N.C.
PM----| PM| PM| PM|
E E E E E E E E E E E Q E E E
|---------------------------|------------------|
|---------------------------|------------------|
|---------------------------|------------------|
|-----------10--------9-----|-7----------------|
|--7-----7--------7-7---7-7-|---7-7-10--9-7----|
|---------------------------|---------------10-|
|
| Q +Q H W
|---------------------------|------------------|
|---------------------------|------------------|
|-14b16====(14)r-----------|------------------|
|---------------------------|------------------|
|---------------------------|------------------|
|---------------------------|------------------|


PM| PM| PM| PM|
E E E E E E E E E E E Q E E E
|------------------|------------------|
|------------------|------------------|
|------------------|------------------|
|-----10-----9-----|-7----------------|
|-7-7----7-7---7-7-|---7-7-10--9-7----|
|------------------|---------------10-|
|
| W W
|------------------|------------------|
|------------------|------------------|
|------------------|------------------|
|------------------|------------------|
|------------------|------------------|
|------------------|------------------|


N.C.
PM| PM| PM| PM|
E E E E E E E E E E E Q E E E
|-------------------|--------------------|
|-------------------|--------------------|
|-------------------|--------------------|
|-----10------9-----|--7-----------------|
|-7-7----7-7----7-7-|----7-7-10---9-7----|
|-------------------|-----------------10-|
|
| PM| PM| PM| PM|
| E E E E E E E E E E E Q E E E
|-------------------|--------------------|
|-----13-----12-----|-10-----------------|
|-------------------|--------12--11-9----|
|-------------------|-----------------12-|
|-7-7----7-7----7-7-|----7-7-------------|
|-------------------|--------------------|


PM| PM| PM| PM|
E E E E E E E E E E E Q E E E
|-------------------|--------------------|
|-------------------|--------------------|
|-------------------|--------------------|
|-----10------9-----|--7-----------------|
|-7-7----7-7----7-7-|----7-7-10---9-7----|
|-------------------|-----------------10-|
|
| PM| PM| PM| PM|
| E E E E E E E E E E E Q E E E
|-------------------|--------------------|
|-----13-----12-----|-10-----------------|
|-------------------|--------12--11-9----|
|-------------------|-----------------12-|
|-7-7----7-7----7-7-|----7-7-------------|
|-------------------|--------------------|


D5
W +W
|-------------|-------------|
|-------------|-------------|
|-------------|-------------|
|---7---------|--(7)--------|
|---5---------|--(5)--------|
|-------------|-------------|
|
| +W +W
|-------------|-------------|
|-------------|-------------|
|-------------|-------------|
|-------------|-------------|
|-------------|-------------|
|-(10)--------|-(10)--------|


G5 F#5E5 A5 G5 F#5
PM---| PM--------| PM--| PM--------|
E S S E E E S S S S S S E S S E E E S S S S S S
|------------------------------|----------------------------|
|------------------------------|----------------------------|
|-12----------11-9-------------|-9-------12-11--------------|
|-12----------11-9-------------|-7-7-7-7-12-11--------------|
|-10-10-10-10--9-7-7-7-7-7-7-7-|---------10--9-9-9-9-9-9-9--|
|------------------------------|----------------------------|
|
| W W
|------------------------------|----------------------------|
|------------------------------|----------------------------|
|------------------------------|----------------------------|
|------------------------------|----------------------------|
|------------------------------|----------------------------|
|------------------------------|----------------------------|


C5 B5
PM-----------------------------
H.. E S S S S S S S S S S S S S S S S
|-------------|---------------------------------|
|-------------|---------------------------------|
|-------------|---------------------------------|
|-----------5-|-4-------------------------------|
|-----------3-|-2-2-2-2-2-2-2-2-2-2-2-2-2-2-2-2-|
|-------------|---------------------------------|


C5
---------------------------|
S S S S S S S S S S S S S S E
|-------------------------------|
|-------------------------------|
|-------------------------------|
|-----------------------------5-|
|-2-2-2-2-2-2-2-2-2-2-2-2-2-2-3-|
|-------------------------------|


B5
PM-----------------------------
S S S S S S S S S S S S S S S S
|---------------------------------|
|---------------------------------|
|---------------------------------|
|-4-------------------------------|
|-2-2-2-2-2-2-2-2-2-2-2-2-2-2-2-2-|
|---------------------------------|


C5 B5 C5 D5 B5
---------------------------|
S S S S S S S S S S S S S S E q q q q
|-------------------------------|-------------|
|-------------------------------|-------------|
|-------------------------------|-------------|
|-----------------------------5-|-4--5--7--4--|
|-2-2-2-2-2-2-2-2-2-2-2-2-2-2-3-|-2--3--5--2--|
|-------------------------------|-------------|


Lead2
E5 D5
PM--------------------------| PM---------------------------|
E S S S S S S S S S S S S S S E S S S S S S S S S S S S S S
|---------------------------------|-----------------------------------|
|---------------------------------|-----------------------------------|
|-9-------------------------------|--7--------------------------------|
|-9-------------------------------|--7--------------------------------|
|-7-7-7-7-7-7-7--7-7-7-7--7-7-7-7-|--5-5-5---5--5-5-5-5-5-5-5-5-5-5-5-|
|---------------------------------|-----------------------------------|
|
| Gtr II
| H Q Q Q +E E H
|---------------------------------|-----------------------------------|
|---------------------------------|-----------------------------------|
|-9-------------11-------12-------|-11-----(11)---9---9---------------|
|---------------------------------|-----------------------------------|
|---------------------------------|-----------------------------------|
|---------------------------------|-----------------------------------|


E5 C5 D5
PM-------------------------| PM-------------------| PM--------------|
E S S S S S S S S S S S S S S E S S S S S S E S S S S S S
|--------------------------------|---------------------------------------------------------|
|--------------------------------|---------------------------------------------------------|
|-9------------------------------|--5----------------------------7-------------------------|
|-9------------------------------|--5----------------------------7-------------------------|
|-7-7-7-7-7-7-7--7-7-7-7-7-7-7-7-|--3-----3----3--3----3--3----3-5--5-5-----5--5--5---5----|
|--------------------------------|---------------------------------------------------------|
|
| H Q Q E E E Q E a S S S +S
|--------------------------------|---------------------------------------------------------|
|--------------------------------|-15b17-15b17---15b17---15b17r====15---15-12-15-12-(12)--|
|-9------------------------------|---------------------------------------------------------|
|---------------12-------9-------|---------------------------------------------------------|
|--------------------------------|---------------------------------------------------------|
|--------------------------------|---------------------------------------------------------|


E5 D5
PM--------------------------| PM---------------------------|
E S S S S S S S S S S S S S S E S S S S S S S S S S S S S S
|---------------------------------|-----------------------------------|
|---------------------------------|-----------------------------------|
|-9-------------------------------|--7--------------------------------|
|-9-------------------------------|--7--------------------------------|
|-7-7-7-7-7-7-7--7-7-7-7--7-7-7-7-|--5-5-5--5-5--5-5--5-5-5-5-5-5-5-5-|
|---------------------------------|-----------------------------------|
|
| ~~
| H Q Q Q E E H
|---------------------------------|-----------------------------------|
|---------------------------------|-10----------10---12---------------|
|-9-------------11-------12-------|--------12-------------------------|
|---------------------------------|-----------------------------------|
|---------------------------------|-----------------------------------|
|---------------------------------|-----------------------------------|


E5 C5 D5
PM---------------------------| PM---------| PM---------|
E S S S S S S S S S S S S S S E S S S S S S E S S S S S S
|--------------------------------------|----------------------------------|
|--------------------------------------|----------------------------------|
|--9-----------------------------------|--5---------------7---------------|
|--9-----------------------------------|--5---------------7---------------|
|--7----7--7-7-7-7-7--7-7-7-7--7-7-7-7-|--3-3-3--3-3-3-3--5-5-5--5-5-5-5--|
|--------------------------------------|----------------------------------|
|
| TP TP TP TP TP TP
| S S Q. Q Q Q Q Q Q
|--------------------------------------|----------------------------------|
|--------------------------------------|-10-------------------------------|
|-12-11-9------------11-------12-------|--------12-------11---------------|
|--------------------------------------|------------------------12--------|
|--------------------------------------|----------------------------------|
|--------------------------------------|----------------------------------|


E5 D5
PM------------------------------------| PM-----------------------------------|
E S S S S S S S S S S S S S S E S S S S S S S S S S S S S S
|-------------------------------------------------|-----------------------------------------------|
|-------------------------------------------------|-----------------------------------------------|
|--9----------------------------------------------|--7--------------------------------------------|
|--9----------------------------------------------|--7--------------------------------------------|
|--7-----7--7--7--7--7--7--7--7--7--7--7--7--7--7-|--5-----5----5--5----5--5-5---5--5-5-5-5-5-5-5-|
|-------------------------------------------------|-----------------------------------------------|
|
| ~~~~
| S S S S S S S S S S S S S S S S E E E E +H
|-15-12----12-15-12----12-15-12----12-15-12----12-|-15b17-15b17---15b17---15---(15)---------------|
|-------12----------12----------12----------12----|-----------------------------------------------|
|-------------------------------------------------|-----------------------------------------------|
|-------------------------------------------------|-----------------------------------------------|
|-------------------------------------------------|-----------------------------------------------|
|-------------------------------------------------|-----------------------------------------------|


E5
PM------------------------------------|
E S S S S S S S S S S S S S S
|--------------------------------------------------|
|--------------------------------------------------|
|--9-----------------------------------------------|
|--9-----------------------------------------------|
|--7-----7--7--7--7--7--7--7--7--7--7--7--7--7--7--|
|--------------------------------------------------|
|
| S S S S S S S S S S S S S S S S
|-19-17-15----17-15-------15-----------------------|
|----------19-------19-17----19-17-15-19-17-15-17--|
|--------------------------------------------------|
|--------------------------------------------------|
|--------------------------------------------------|
|--------------------------------------------------|


C5 D5 E5
PM----------| PM----------| PM------------------------------|
E S S S S S S E S S S S S S E S S S S S S S S S S S S S S
|-------------------------------------|---------------------------------------|
|-------------------------------------|---------------------------------------|
|--5-----------------7----------------|--9------------------------------------|
|--5-----------------7----------------|--9------------------------------------|
|--3--3-3--3-3--3-3--5--5-5--5-5--5-5-|--7--7-7--7-7--7-7--7-7--7-7--7-7--7-7-|
|-------------------------------------|---------------------------------------|
|
| PM------------------------------|
| E E E E E E E E e e e e e e e e
|-------------------------------------|---------------------------------------|
|-12-13--------12---------------------|-----------------------------15---17---|
|---------14--------12-14---11---12---|--------------14---16---17-------------|
|-------------------------------------|-14-16---17----------------------------|
|-------------------------------------|---------------------------------------|
|-------------------------------------|---------------------------------------|


D5
PM----------------------------------|
E S S S S S S S S S S S S S S
|--------------------------------------------|
|--------------------------------------------|
|--7-----------------------------------------|
|--7-----------------------------------------|
|--5--5-5--5-5--5-----5---5---5-5-5-5-5-5-5--|
|--------------------------------------------|
|
| E E E E +H
|-14-15---17---17b19====(17)r----------------|
|--------------------------------------------|
|--------------------------------------------|
|--------------------------------------------|
|--------------------------------------------|
|--------------------------------------------|


E5
PM---------------------------------------------------------------|
E S S S S S S S S S S S S S S
|-------------------------------------------------------------------------------|
|-------------------------------------------------------------------------------|
|--9----------------------------------------------------------------------------|
|--9----------------------------------------------------------------------------|
|--7-------7----7----7----7----7----7----7----7----7----7----7----7----7----7---|
|-------------------------------------------------------------------------------|
|
| T T T T T T T T
| |------6-------| |-------6--------| |-------6--------| |-------6--------|
| S S S S S S S S S S S S S S S S S S S S S S S S
|-15p10p7-15p10p==7-15p10p==7-15p10p==7-----------------------------------------|
|---------------------------------------15p12p==8-15p12p==8-15p12p==8-15p12p==8-|
|-------------------------------------------------------------------------------|
|-------------------------------------------------------------------------------|
|-------------------------------------------------------------------------------|
|-------------------------------------------------------------------------------|


C5 D5
PM-----------------------| PM-----------------------|
E S S S S S S E S S S S S S
|--------------------------------------------------------------------------------|
|--------------------------------------------------------------------------------|
|--5--------------------------------------7--------------------------------------|
|--5--------------------------------------7--------------------------------------|
|--3--------3----3----3----3----3----3----5-------5----5----5----5----5----5-----|
|--------------------------------------------------------------------------------|
|
| T T T T T T T T
| |-------6-------| |-------6--------| |------6-------| |-------6--------|
| S S S S S S S S S S S S S S S S S S S S S S S S
|--------------------------------------------------------------------------------|
|-13p=10p6-13p10p==6-13p10p==6-13p10p==6-15p12p8-15p12p==8-15p12p==8-15p12p==8---|
|--------------------------------------------------------------------12----------|
|--------------------------------------------------------------------------------|
|--------------------------------------------------------------------------------|
|--------------------------------------------------------------------------------|
H.. E


E5 D5
PM-----------------------------| PM----------------------------|
E S S S S S S S S S S S S S S E S S S S S S S S S S S S S S
|----------------------------------------|---------------------------------------|
|----------------------------------------|---------------------------------------|
|---9------------------------------------|---7-----------------------------------|
|---9------------------------------------|---7-----------------------------------|
|---7---7-7--7-7--7-7-7-7--7-7--7-7--7-7-|---5---5-5-5-5--5-5--5-5-5-5--5-5--5-5-|
|----------------------------------------|---------------------------------------|
|
| +E E E E E E E E +E E E E E E E E
|----------------------------------------|---------------------------------------|
|------10--------------------------------|---------------------------------------|
|-(12)------11---12---9---11--------11---|-(11)-12---9---11--------9--------12---|
|------------------------------12--------|--------------------12-------10--------|
|----------------------------------------|---------------------------------------|
|----------------------------------------|---------------------------------------|


E5 C5 D5
PM-----------------------------| PM---------| PM----------|
E S S S S S S S S S S S S S S E S S S S S S E S S S S S S
|----------------------------------------|---------------------------------------|
|----------------------------------------|---------------------------------------|
|---9------------------------------------|---5-----------------7-----------------|
|---9------------------------------------|---5-----------------7-----------------|
|---7---7-7--7-7--7-7-7-7--7-7--7-7--7-7-|---3---3-3-3-3--3-3--5-5-5--5-5--5-5---|
|----------------------------------------|---------------------------------------|
|
| +E E E E E E E E +E E E E E E E E
|----------------------------------------|---------------------------------------|
|------10--------------------------------|---------------------------------------|
|-(12)------11---12---9---11--------11---|-(11)-12---9---11------9--------12-----|
|------------------------------12--------|--------------------12-----10----------|
|----------------------------------------|---------------------------------------|
|----------------------------------------|---------------------------------------|


E5 D5
PM-----------------------------| PM----------------------------|
E S S S S S S S S S S S S S S E S S S S S S S S S S S S S S
|----------------------------------------|---------------------------------------|
|----------------------------------------|---------------------------------------|
|---9------------------------------------|---7-----------------------------------|
|---9------------------------------------|---7-----------------------------------|
|---7---7-7--7-7--7-7-7-7--7-7--7-7--7-7-|---5---5-5-5-5--5-5--5-5-5-5--5-5--5-5-|
|----------------------------------------|---------------------------------------|
|
| E E E E E E E E +E E E E E E E E
|----------------------------------------|---------------------------------------|
|------10--------------------------------|---------------------------------------|
|-(12)------11---12---9---11--------11---|-(11)-12---9---11--------9--------12---|
|-------7----------------------12--------|--------------------12-------10--------|
|--10--------9---10---7----9---------9---|--(9)-10---7----9--------7--------10---|
|------------------------------10--------|--------------------10--------8--------|


E5 C5 D5
PM-----------------------------| PM---------| PM----------|
E S S S S S S S S S S S S S S E S S S S S S E S S S S S S
|----------------------------------------|---------------------------------------|
|----------------------------------------|---------------------------------------|
|---9------------------------------------|---5-----------------7-----------------|
|---9------------------------------------|---5-----------------7-----------------|
|---7---7-7--7-7--7-7-7-7--7-7--7-7--7-7-|---3---3-3-3-3--3-3--5-5-5--5-5--5-5---|
|----------------------------------------|---------------------------------------|
|
| E E E E E E E E +E E E E E E E E
|----------------------------------------|---------------------------------------|
|------10--------------------------------|---------------------------------------|
|--12-------11---12---9---11--------11---|-(11)-12---9---11------9--------12-----|
|-------7----------------------12--------|--------------------12-----10----------|
|-(10)-------9---10---7----9---------9---|--(9)-10---7----9------7--------10-----|
|------------------------------10--------|--------------------10------8----------|


Outro
E5 D5
PM--------------------------| PM---------------------------|
E S S S S S S S S S S S S S S E S S S S S S S S S S S S S S
|---------------------------------|-----------------------------------|
|---------------------------------|-----------------------------------|
|-9-------------------------------|--7--------------------------------|
|-9-------------------------------|--7--------------------------------|
|-7-7-7-7-7-7-7--7-7-7-7--7-7-7-7-|--5-5-5---5--5-5-5-5-5-5-5-5-5-5-5-|
|---------------------------------|-----------------------------------|
|
| H Q Q Q +E E H
|---------------------------------|-----------------------------------|
|---------------------------------|-----------------------------------|
|-9-------------11-------12-------|-11-----(11)---9---9---------------|
|---------------------------------|-----------------------------------|
|-7--------------9-------10-------|--9------(9)---7---7---------------|
|---------------------------------|-----------------------------------|


E5 C5 D5
PM-------------------------| PM-------------------| PM--------------|
E S S S S S S S S S S S S S S E S S S S S S E S S S S S S
|--------------------------------|---------------------------------------------------------|
|--------------------------------|---------------------------------------------------------|
|-9------------------------------|--5----------------------------7-------------------------|
|-9------------------------------|--5----------------------------7-------------------------|
|-7-7-7-7-7-7-7--7-7-7-7-7-7-7-7-|--3-----3----3--3----3--3----3-5--5-5-----5--5--5---5----|
|--------------------------------|---------------------------------------------------------|
|
| H Q Q E E E Q E a S S S +S
|--------------------------------|---------------------------------------------------------|
|--------------------------------|-15b17-15b17---15b17---15b17r====15---15-12-15-12-(12)--|
|-9------------------------------|---------------------------------------------------------|
|---------------12-------9-------|---------------------------------------------------------|
|-7------------------------------|---------------------------------------------------------|
|---------------10-------7-------|---------------------------------------------------------|


E5 D5 E5 B5
W W W W
|--------------|-----------------|--------------------|----------------------|
|--------------|-----------------|--------------------|----------------------|
|-9------------|--7--------------|--9-----------------|--4-------------------|
|-9------------|--7--------------|--9-----------------|--4-------------------|
|-7------------|--5--------------|--7-----------------|--2-------------------|
|--------------|-----------------|--------------------|----------------------|
|
| ~~
| H Q Q Q E E H S S Q. Q Q S S Q. Q Q
|--------------|-----------------|--------------------|----------------------|
|--------------|-10-----10-12----|--------------------|----------------------|
|-9----11--12--|-----12----------|-12-11-9----11------|-12-11-9----11--------|
|--------------|--7------7--9----|----------------13--|----------------13----|
|-7-----9--10--|-----10----------|-10--9-7-----9------|-10--9-7-----9--------|
|--------------|-----------------|----------------11--|----------------11----|


A5 G5 E5
W W Q H.
|-------------------------|-------------------------|------------*|
|-------------------------|-------------------------|------------*|
|--2----------------------|-------------------------|--9--------*|
|--2----------------------|--5----------------------|--9--------*|
|--0----------------------|--5----------------------|--7--------*|
|-------------------------|--3----------------------|------------*|
|
| E E E E E E E E E E E E E E E E Q H.
|-------------------------|-------------------------|------------*|
|-------------------------|-------------------------|------------*|
|-12----11----12----11----|-12----11----11----------|------------*|
|----14----13----14----13-|----14----13----13----13-|-14--------*|
|-------------------------|-------------------14----|------------*|
|-------------------------|-------------------------|------------*|



Duration Legend
---------------
W - whole; H - half; Q - quarter; E - 8th; S - 16th; T - 32nd; X - 64th; a - acciaccatura
+ - note tied to previous; . - note dotted; .. - note double dotted
Uncapitalized letters represent notes that are staccato (1/2 duration)
Irregular groupings are notated above the duration line
Duration letters will always appear directly above the note/fret number it represents the
duration for. Duration letters with no fret number below them represent rests. Multi-
bar rests are notated in the form Wxn, where n is the number of bars to rest for. Low
melody durations appear below the staff

Tablature Legend
----------------
h - hammer-on
p - pull-off
b - bend
pb - pre-bend
r - bend release (if no number after the r, then release immediately)
/ - slide into or out of (from/to "nowhere")
s - legato slide
S - shift slide
- natural harmonic
[n] - artificial harmonic
n(n) - tapped harmonic
~ - vibrato
tr - trill
T - tap
TP - trem. picking
PM - palm muting
n/ - tremolo bar dip; n = amount to dip
n - tremolo bar down
n/ - tremolo bar up
/n - tremolo bar inverted dip
= - hold bend; also acts as connecting device for hammers/pulls
<> - volume swell (louder/softer)
x - on rhythm slash represents muted slash
o - on rhythm slash represents single note slash

Misc Legend
-----------
| - bar
|| - double bar
||o - repeat start
o|| - repeat end
*| - double bar (ending)
: - bar (freetime)
$ - Segno
& - Coda
Tempo markers - = BPM(8/16=s8/s16), where s8 = swing 8ths, s16 = swing 16ths

-----------------------------
|  , ,   |
|     http://akords.org     |
-----------------------------

 (: 0)
    :
  • Traveler In Time
  • Run For The Night
  • Janies Got A Gun
  • Trial By The Archon
  • Hell Aint A Bad Place To Be
  •  
    , . '.

    ':*
    E-Mail:*
    :
    , : *
     
      

    BLIBL-