|  
 
:  
  : :  
      ?    

  |

akords.org » B » Blind Guardian » Born In A Mourning Hall

Blind Guardian - Born In A Mourning Hall 2

#----------------------------------PLEASE NOTE---------------------------------#
#This file is the author's own work and represents their interpretation of the #
#song. You may only use this file for private study, scholarship, or research. #
#------------------------------------------------------------------------------#

BORN IN A MOURNING HALL
As recorded by Blind Guardian
(From the 1995 Album IMAGINATIONS FROM THE OTHER SIDE)

Transcribed by Drimascus_God_Of_Thunder


Words by Krsch Music by Krsch, Olbrich

Gtr I (Eb Ab Db Gb Bb Eb) - 'Magnus'
Gtr II (Eb Ab Db Gb Bb Eb) - 'Andre'
Gtr III (Eb Ab Db Gb Bb Eb) - 'Marcus 2'
Gtr IV (Eb Ab Db Gb Bb Eb) - 'Strings1'
Gtr V (Eb Bb Db Gb Bb Eb) - 'Strings2'

Intro
Q=190
E D E D E D E D E D E E D E5 D#5 D5 C#5
4/4
Gtr I
E E E E E E E E E E E E E E E E E E E E E E E E E E E E E E E E
||------------------|-----------------|-----------------|-----------------|
||o-----------------|-----------------|-----------------|-----------------|
||--9---9-7-9---9-7-|-9---9-7-9---9-7-|-9---9-7-9---9-7-|-9---8---7---6---|
||------------------|-----------------|-----------------|-9---8---7---6---|
||o-7---7-5-7---7-5-|-7---7-5-7---7-5-|-7---7-5-7---7-5-|-7---6---5---4---|
||------------------|-----------------|-----------------|-----------------|


E D E D E D E D E D E D G5 A5
E E E E E E E E E E E E E E E E E E E E E E E E H H
|-----------------|-----------------|-----------------|------------||
|-----------------|-----------------|-----------------|-----------o||
|-9---9-7-9---9-7-|-9---9-7-9---9-7-|-9---9-7-9---9-7-|------------||
|-----------------|-----------------|-----------------|-5----7-----||
|-7---7-5-7---7-5-|-7---7-5-7---7-5-|-7---7-5-7---7-5-|-5----7----o||
|-----------------|-----------------|-----------------|-3----5-----||


Lead 1
E5 D5
W +W W +W
|--------------|---------------|--------------------|------------------------|
|--------------|---------------|--------------------|------------------------|
|--------------|---------------|-7------------------|-(7)--------------------|
|-2------------|-(2)-----------|-7------------------|-(7)--------------------|
|-2------------|-(2)-----------|-5------------------|-(5)--------------------|
|-0------------|-(0)-----------|--------------------|------------------------|
|
| Gtr II
| |-3-| |----3----| |-3-|
| H E E E E +H Q Q Q E E H +E S S Q S S E Q Q Q Q
|--------------|---------------|--------------------|------------------------|
|--------------|---------------|--------------10-10-|-10--9-10-9-7-----------|
|------------9-|-(9)----9-7-6--|-7-9----------------|--------------7-9-9b11r=|
|------6-7-9---|---------------|-----7----(7)-------|------------------------|
|-7------------|---------------|--------------------|------------------------|
|--------------|---------------|--------------------|------------------------|


A5 E5 E5 E5 E5
PM| PM| PM| PM|
W +W e e Q e e Q e e Q e e Q
|--------------|----------------|---------------|-----------------------|
|--------------|----------------|---------------|-----------------------|
|--------------|----------------|---------------|-----------------------|
|--7-----------|-(7)------------|-----2------2--|-------2-----------2---|
|--7-----------|-(7)------------|-----2------2--|-------2-----------2---|
|--5-----------|-(5)------------|-0-0-0--0-0-0--|-0-0---0---0-0-----0---|
|
| |---3---| |----3----|
| +H. E E H. E E W Q Q Q Q S S E Q
|--------------|----------------|---------------|-----------------------|
|--------------|----------------|---------------|-----------------------|
|-(9)----------|----------------|---------------|-----------------------|
|----------7-9-|--9b11------9-7-|-9-------------|-6---7---9-7---6-7-6---|
|--------------|----------------|---------------|---------------------9-|
|--------------|----------------|---------------|-----------------------|


E5
W +W
|--------------|------------------|
|--------------|------------------|
|--------------|------------------|
|-2------------|-(2)--------------|
|-2------------|-(2)--------------|
|-0------------|-(0)--------------|
|
| |---3---|
| H E E E E +H Q S S E Q
|--------------|------------------|
|--------------|------------------|
|------------9-|-(9)----9-7-9-7-6-|
|------6-7-9---|------------------|
|-7------------|------------------|
|--------------|------------------|


D5
W +W
|--------------------|-------------------------|
|--------------------|-------------------------|
|-7------------------|-(7)---------------------|
|-7------------------|-(7)---------------------|
|-5------------------|-(5)---------------------|
|--------------------|-------------------------|
|
| |----3----| |-3-|
| E E H +E S S Q S S E Q Q Q Q
|--------------------|-------------------------|
|--------------10-10-|-10--9-10-9-7------------|
|-7-9----------------|--------------7-9-9b11r==|
|-----7----(7)-------|-------------------------|
|--------------------|-------------------------|
|--------------------|-------------------------|


A5 E5 E5 E5 E5
PM| PM| PM-| PM|
W +W e e Q e e Q e e Q e e Q
|----------------|------------------|----------------|-------------------|
|----------------|------------------|----------------|-------------------|
|----------------|------------------|----------------|-------------------|
|--7-------------|-(7)--------------|------2------2--|--------2------2---|
|--7-------------|-(7)--------------|------2------2--|--------2------2---|
|--5-------------|-(5)--------------|--0-0-0--0-0-0--|---0--0-0--0-0-0---|
|
| +H. E E H. E E W +W
|----------------|------------------|----------------|-------------------|
|----------10-12-|-12b14------12-10-|-12-------------|-(12)--------------|
|-(9)------------|------------------|----------------|-------------------|
|----------------|------------------|----------------|-------------------|
|----------------|------------------|----------------|-------------------|
|----------------|------------------|----------------|-------------------|


Verse 1
E5
PM| PM| PM| PM| PM| PM| PM| PM|
E E E E E E E E E E E E E E E E E E E E E E E E E E E E E E E E
||------------------|-----------------|-----------------|-----------------|
||o-----------------|-----------------|-----------------|-----------------|
||------------------|-----------------|-----------------|-----------------|
||------------------|-----------------|-----------------|-----------------|
||o-----7p5-----5p4-|-----4h5-----5h7-|-----7p5-----5p4-|-----4h5-----5h7-|
||--0-0-----0-0-----|-0-0-----0-0-----|-0-0-----0-0-----|-0-0-----0-0-----|


1. 2.
G5 A5 E G5 A5 E E5 E5
PM| PM| PM| PM PM| PM
H H E E E E E E E E H H E E E E Q Q E E E E Q Q
|-----------|-----------------|-----------|----------------||-----------------|
|-----------|-----------------|-----------|---------------o||-----------------|
|-----------|-----------------|-----------|---------9------||---------9-------|
|-5----7----|-----------------|-5----7----|---------9------||---------9-------|
|-5----7----|-----7p5-----5p4-|-5----7----|-----7---7-----o||-----7---7--7---|
|-3----5----|-0-0-----0-0-----|-3----5----|-0-0---0--------||-0-0---0---------|


E5 F5 E5 F5
Q Q Q Q Q H Q Q Q Q Q Q H Q
||--------------|------------|-------------|--------------||
||o-------------|------------|-------------|-------------o||
||--------------|------------|-------------|--------------||
||--2-----2-----|-2-------3S=|=2-----2-----|-2-------3---||
||o-2-----2-----|-2-------3S=|=2-----2-----|-2-------3--o||
||--0-----0-----|-0-------1S=|=0-----0-----|-0-------1---||


E5 E5 D#5 D5 C#5
PM--------------------------------------------------|
E S S S S S S S S S S S S S S E S S E S S E S S E S S
||--------------------------------|-------------------------|
||o-------------------------------|-------------------------|
||--9-----------------------------|-------------------------|
||--9-----------------------------|-9-----8-----7-----6-----|
||o-7-7-7-7-7-7-7-7-7-7-7-7-7-7-7-|-7-7-7-6-6-6-5-5-5-4-4-4-|
||--------------------------------|-------------------------|


C5 G5 A5
PM------------------------|
E S S S S S S S S S S S S S S H H
|-------------------------------|------------||
|-------------------------------|-----------o||
|-5-----------------------------|------------||
|-5-----------------------------|-5----7-----||
|-3-3-3-3-3-3-3-3-3-3-3-3-3-3-3-|-5----7----o||
|-------------------------------|-3----5-----||


Chorus
E5 C5 A5 A#5 B5
W W W H H
||-----------|----------|----------|-----------|
||o----------|----------|----------|-----------|
||-----------|-5--------|----------|-----------|
||--2--------|-5--------|-7--------|-8----9----|
||o-2--------|-3--------|-7--------|-8----9----|
||--0--------|----------|-5--------|-6----7----|


E5 C5 G5 B5
W W W W
|----------|----------|----------|-------||
|----------|----------|----------|------o||
|----------|-5--------|----------|-4-----||
|-2--------|-5--------|-5--------|-4-----||
|-2--------|-3--------|-5--------|-2----o||
|-0--------|----------|-3--------|-------||


E5 E5
PM----| PM----------| PM----| PM----------|
E E E E H E S S E E E E Q E E E E H E S S E E E E Q
|--------------|------------------|--------------|-------------------|
|--------------|------------------|--------------|-------------------|
|--------------|------------------|--------------|-------------------|
|---------2----|---------------0--|---------2----|---------------0---|
|---------2----|-0-0-0-0-0-1-1----|---------2----|-0-0-0-0-0-1-1-----|
|-0-0-0-0-0----|------------------|-0-0-0-0-0----|-------------------|


Lead 2
E5 B5
PM-------------------------------------------------------------
E S S S S S S S S S S S S S S E S S S S S S S S S S S S S S
||--------------------------------|-------------------------------|
||o-------------------------------|-------------------------------|
||--------------------------------|-------------------------------|
||--------------------------------|-4-----------------------------|
||o-2-----------------------------|-2-2-2-2-2-2-2-2-2-2-2-2-2-2-2-|
||--0-0-0-0-0-0-0-0-0-0-0-0-0-0-0-|-------------------------------|


D5 C5
-------------------------------------------------------------|
E S S S S S S S S S S S S S S E S S S S S S S S S S S S S S
|-------------------------------|-----------------------------------||
|-------------------------------|----------------------------------o||
|-------------------------------|-----------------------------------||
|-7-----------------------------|-5---------------------------------||
|-5-5-5-5-5-5-5-5-5-5-5-5-5-5-5-|-3-3-3-3-3-3-3-3-3-3-3-3-3-3-3----o||
|-------------------------------|-----------------------------------||


Interlude
E D E E D E D E D E D E E5 D#5 D5 C#5
E E E E E E E E E E E E E E E E E E E E E E E E E E E E E E E E
|-----------------|-------------------|-------------------|------------------|
|-----------------|-------------------|-------------------|------------------|
|-9---9-7-9---9-7-|--9----9-7-9---9-7-|--9----9-7-9---9-7-|-9---8---7---6----|
|-----------------|-------------------|-------------------|-9---8---7---6----|
|-7---7-5-7---7-5-|--7----7-5-7---7-5-|--7----7-5-7---7-5-|-7---6---5---4----|
|-----------------|-------------------|-------------------|------------------|
|
| Gtr III
| W +W +W E E E E E E E E
|-----------------|-------------------|-------------------|------------------|
|-----------------|-------------------|-------------------|------------------|
|-----------------|-------------------|-------------------|-9---8---7---6----|
|-2---------------|-(2)---------------|-(2)---------------|-9---8---7---6----|
|-2---------------|-(2)---------------|-(2)---------------|-7---6---5---4----|
|-0---------------|-(0)---------------|-(0)---------------|------------------|


E5 G5 A5
E E E E E E E E E E E E E E E E E E E E E E E E H H
|-----------------|-------------------|-------------------|-----------|
|-----------------|-------------------|-------------------|-----------|
|-9---9-7-9---9-7-|--9----9-7-9---9-7-|--9----9-7-9---9-7-|-----------|
|-----------------|-------------------|-------------------|-5----7----|
|-7---7-5-7---7-5-|--7----7-5-7---7-5-|--7----7-5-7---7-5-|-5----7----|
|-----------------|-------------------|-------------------|-3----5----|
|
| W +W +W H H
|-----------------|-------------------|-------------------|-----------|
|-----------------|-------------------|-------------------|-----------|
|-----------------|-------------------|-------------------|-----------|
|-2---------------|-(2)---------------|-(2)---------------|-5----7----|
|-2---------------|-(2)---------------|-(2)---------------|-5----7----|
|-0---------------|-(0)---------------|-(0)---------------|-3----5----|


Verse 2
B5 F5 F#5 A5 B5 F5 F#5 A5
W Q. Q. Q W Q. Q. Q
||-----------|--------------|----------|---------------||
||o----------|--------------|----------|--------------o||
||--4--------|-----------2--|-4--------|-----------2---||
||--4--------|-3----4----2--|-4--------|-3----4----2---||
||o-2--------|-3----4----0--|-2--------|-3----4----0--o||
||-----------|-1----2-------|----------|-1----2--------||


E
Gtr V
W +W W +W
|----------------|------------|----------------|------------------|
|----------------|------------|----------------|------------------|
|----------------|------------|----------------|------------------|
|-2--------------|-(2)--------|-2--------------|-(2)--------------|
|----------------|------------|----------------|------------------|
|-0--------------|-(0)--------|-0--------------|-(0)--------------|
|
| Gtr IV
| Q E E E E E E W Q E E E E E E E E E E +H
|----4-----6-----|--7---------|----4-----7-----|--6------4-(4)----|
|------5-----5---|------------|------5-----5---|-----5------------|
|--------4-----4-|------------|--------4-----4-|-------4----------|
|----------------|------------|----------------|------------------|
|----------------|------------|----------------|------------------|
|----------------|------------|----------------|------------------|


C5 C5 B5 A5 B5
Gtr I
PM------------------------| PM| PM| PM| PM|
E S S S S S S S S S S S S S S E S S E S S E S S E S S
||--------------------------------|--------------------------||
||o-------------------------------|-------------------------o||
||--5-----------------------------|-5-----4-----2-----4------||
||--5-----------------------------|-5-----4-----2-----4------||
||o-3-3-3-3-3-3-3-3-3-3-3-3-3-3-3-|-3-3-3-2-2-2-0-0-0-2-2-2-o||
||--------------------------------|--------------------------||


E E
Gtr V
W +W W +W
|----------------|------------|----------------|------------------|
|----------------|------------|----------------|------------------|
|----------------|------------|----------------|------------------|
|-2--------------|-(2)--------|-2--------------|-(2)--------------|
|----------------|------------|----------------|------------------|
|-0--------------|-(0)--------|-0--------------|-(0)--------------|
|
| Gtr IV
| Q E E E E E E W Q E E E E E E E E E E +H
|----4-----6-----|--7---------|----4-----7-----|--6------4-(4)----|
|------5-----5---|------------|------5-----5---|-----5------------|
|--------4-----4-|------------|--------4-----4-|-------4----------|
|----------------|------------|----------------|------------------|
|----------------|------------|----------------|------------------|
|----------------|------------|----------------|------------------|


C5 C5 B5 A5 B5
Gtr III
PM------------------------| PM| PM| PM| PM|
E S S S S S S S S S S S S S S E S S E S S E S S E S S
||--------------------------------|--------------------------||
||o-------------------------------|-------------------------o||
||--5-----------------------------|-5-----4-----2-----4------||
||--5-----------------------------|-5-----4-----2-----4------||
||o-3-3-3-3-3-3-3-3-3-3-3-3-3-3-3-|-3-3-3-2-2-2-0-0-0-2-2-2-o||
||--------------------------------|--------------------------||


Chorus
E5 C5 A5 A#5 B5
W W W H H
||-----------|----------|----------|-----------|
||o----------|----------|----------|-----------|
||-----------|-5--------|----------|-----------|
||--2--------|-5--------|-7--------|-8----9----|
||o-2--------|-3--------|-7--------|-8----9----|
||--0--------|----------|-5--------|-6----7----|


E5 C5 G5 B5
W W W W
|----------|----------|----------|-------||
|----------|----------|----------|------o||
|----------|-5--------|----------|-4-----||
|-2--------|-5--------|-5--------|-4-----||
|-2--------|-3--------|-5--------|-2----o||
|-0--------|----------|-3--------|-------||


E5 E5
PM----| PM----------| PM----| PM----------|
E E E E H E S S E E E E Q E E E E H E S S E E E E Q
|--------------|------------------|--------------|-------------------|
|--------------|------------------|--------------|-------------------|
|--------------|------------------|--------------|-------------------|
|---------2----|---------------0--|---------2----|---------------0---|
|---------2----|-0-0-0-0-0-1-1----|---------2----|-0-0-0-0-0-1-1-----|
|-0-0-0-0-0----|------------------|-0-0-0-0-0----|-------------------|


Guitar Solo
E5 G5 A5 A#5 B5 E5 G5 A5 B5
H H Q. Q Q. H H H H
|-------------------|------------------|-------------------|------------------|
|-------------------|------------------|-------------------|------------------|
|-------------------|-2-------3---4----|-------------------|-2----------4-----|
|-2--------5--------|-2-------3---4----|-2--------5--------|-2----------4-----|
|-2--------5--------|-0-------1---2----|-2--------5--------|-0----------2-----|
|-0--------3--------|------------------|-0--------3--------|------------------|
|
| Gtr II
| Q E E E E E E E Q Q Q. Q E E E E E E E Q E +H
|-------------------|------------------|-------------------|------------------|
|---------10--------|----12--11--10----|---------10--------|---12--11-(11)----|
|-9--12-9----12-9-8-|-9----------------|-9--12-9----12-9-8-|-9----------------|
|-------------------|------------------|-------------------|------------------|
|-------------------|------------------|-------------------|------------------|
|-------------------|------------------|-------------------|------------------|


E5 G5 A5 A#5 B5 E5 G5 A5 B5
H H Q. Q Q. H H H H
|-------------------|------------------|-------------------|------------------|
|-------------------|------------------|-------------------|------------------|
|-------------------|-2-------3---4----|-------------------|-2----------4-----|
|-2--------5--------|-2-------3---4----|-2--------5--------|-2----------4-----|
|-2--------5--------|-0-------1---2----|-2--------5--------|-0----------2-----|
|-0--------3--------|------------------|-0--------3--------|------------------|
|
| Q E E E E E E E Q Q Q. Q E E E E E E E Q E +H
|-------------------|------------------|-------------------|------------------|
|---------10--------|----12--11--10----|---------10--------|---12--11-(11)----|
|-9--12-9----12-9-8-|-9----------------|-9--12-9----12-9-8-|-9----------------|
|-------------------|------------------|-------------------|------------------|
|-------------------|------------------|-------------------|------------------|
|-------------------|------------------|-------------------|------------------|


E5 G5 A5 A#5 B5 E5 G5 A5 B5
H H Q. Q Q. H H H H
|--------------|-------------------|----------------|--------------------------|
|--------------|-------------------|----------------|--------------------------|
|--------------|-2--------3---4----|----------------|--2--------------4--------|
|-2------5-----|-2--------3---4----|-2-------5------|--2--------------4--------|
|-2------5-----|-0--------1---2----|-2-------5------|--0--------------2--------|
|-0------3-----|-------------------|-0-------3------|--------------------------|
|
| TP TP TP ~~~~~ TP TP TP ~~~~~~
| |-3-| |--3--|
| E E Q Q Q E E E E E e Q. E E Q Q Q E E E E E e Q.
|--------------|-------------------|----------------|-12-10-12-10----15-15-----|
|--------------|------------8-8----|-----8--10--12--|-------------12-----------|
|--------------|-9--7-9-7----------|-9-9------------|--------------------------|
|-----6--7--9--|----------9--------|----------------|--------------------------|
|-7-7----------|-------------------|----------------|--------------------------|
|--------------|-------------------|----------------|--------------------------|


E5 G5 A5 A#5 B5
H H Q. Q Q.
|------------------------------|--------------------------|
|------------------------------|--------------------------|
|------------------------------|--2------------3-----4----|
|--2---------------5-----------|--2------------3-----4----|
|--2---------------5-----------|--0------------1-----2----|
|--0---------------3-----------|--------------------------|
|
| ~~~
| E. S S S E. E. E E E. S S S E e Q.
|-19--15-19-15-----------------|-19--15-19-15----19-19----|
|--------------17-----------17-|--------------17----------|
|--------------------18--19----|--------------------------|
|------------------------------|--------------------------|
|------------------------------|--------------------------|
|------------------------------|--------------------------|


E5 G5 A5 B5
H H H H
|------------------------------|------------------------------------|
|------------------------------|------------------------------------|
|------------------------------|--2---------------4-----------------|
|--2---------------5-----------|--2---------------4-----------------|
|--2---------------5-----------|--0---------------2-----------------|
|--0---------------3-----------|------------------------------------|
|
| ~~~~~
| E. S S S E. E. E E E. S S S E E Q S S
|-19--15-19-15-----------------|-19--15-19-15----21b22r21b22--17-17-|
|--------------17-----------17-|--------------17--------------19-19-|
|--------------------18--19----|------------------------------------|
|------------------------------|------------------------------------|
|------------------------------|------------------------------------|
|------------------------------|------------------------------------|


F#5 D5 B5 E5
H H H H
|----------------------------|---------------------------------|
|----------------------------|---------------------------------|
|----------------7-----------|--4----------------9-------------|
|--4-------------7-----------|--4----------------9-------------|
|--4-------------5-----------|--2----------------7-------------|
|--2-------------------------|---------------------------------|
|
| E S S E E E Q S S E S S E S S E E E S S
|-14-17-17-17-x-16-14--14-14-|-14-17-17-17-14-x-19-17-16-14-14-|
|----------------------------|---------------------------------|
|----------------------------|---------------------------------|
|----------------------------|---------------------------------|
|----------------------------|---------------------------------|
|----------------------------|---------------------------------|
|
| Gtr I
| E S S E E E Q S S E S S E S S E E E S S
|-17-21-21-21-x-19-17--17-17-|-17-21-21-21-17-x-22-21-19-17-17-|
|----------------------------|---------------------------------|
|----------------------------|---------------------------------|
|----------------------------|---------------------------------|
|----------------------------|---------------------------------|
|----------------------------|---------------------------------|


D5 B5 E5 D5
H H H H
|----------------------------|------------------------------|
|----------------------------|------------------------------|
|--7-------------4-----------|--9-----------7---------------|
|--7-------------4-----------|--9-----------7---------------|
|--5-------------2-----------|--7-----------5---------------|
|----------------------------|------------------------------|
|
| E S S E E E Q S S E E E E E E E S S
|-14-17-17-17-x-16-14--14-14-|-14-17-16-14-20-19-17-14-14---|
|----------------------------|------------------------------|
|----------------------------|------------------------------|
|----------------------------|------------------------------|
|----------------------------|------------------------------|
|----------------------------|------------------------------|
|
| E S S E E E Q S S E E E E E E E S S
|-17-21-21-21-x-19-17--17-17-|-17-21-19-17-24-23-21-17-17---|
|----------------------------|------------------------------|
|----------------------------|------------------------------|
|----------------------------|------------------------------|
|----------------------------|------------------------------|
|----------------------------|------------------------------|


F#5 D5 B5 E5
H H H H
|----------------------------|---------------------------------|
|----------------------------|---------------------------------|
|----------------7-----------|--4----------------9-------------|
|--4-------------7-----------|--4----------------9-------------|
|--4-------------5-----------|--2----------------7-------------|
|--2-------------------------|---------------------------------|
|
| E S S E E E Q S S E S S E S S E E E S S
|-14-17-17-17-x-16-14--14-14-|-14-17-17-17-14-x-19-17-16-14-14-|
|----------------------------|---------------------------------|
|----------------------------|---------------------------------|
|----------------------------|---------------------------------|
|----------------------------|---------------------------------|
|----------------------------|---------------------------------|
|
| E S S E E E Q S S E S S E S S E E E S S
|-17-21-21-21-x-19-17--17-17-|-17-21-21-21-17-x-22-21-19-17-17-|
|----------------------------|---------------------------------|
|----------------------------|---------------------------------|
|----------------------------|---------------------------------|
|----------------------------|---------------------------------|
|----------------------------|---------------------------------|


D5 B5 E5 D5
H H H H
|----------------------------|-----------------------|
|----------------------------|-----------------------|
|--7-------------4-----------|--9-----------7--------|
|--7-------------4-----------|--9-----------7--------|
|--5-------------2-----------|--7-----------5--------|
|----------------------------|-----------------------|
|
| E S S E E E Q S S E E E E E E Q
|-14-17-17-17-x-16-14--14-14-|-14-19-17-14-20-19-17--|
|----------------------------|-----------------------|
|----------------------------|-----------------------|
|----------------------------|-----------------------|
|----------------------------|-----------------------|
|----------------------------|-----------------------|
|
| E S S E E E Q S S E E E E E E Q
|-17-21-21-21-x-19-17--17-17-|-17-22-21-17-24-23-21--|
|----------------------------|-----------------------|
|----------------------------|-----------------------|
|----------------------------|-----------------------|
|----------------------------|-----------------------|
|----------------------------|-----------------------|


F#5 D5
W W
|-------------------|------------------|
|-------------------|------------------|
|-------------------|--7---------------|
|--4----------------|--7---------------|
|--4----------------|--5---------------|
|--2----------------|------------------|
|
| H E E E E H E E E E
|----------------12-|-10----------9-12-|
|----------10-12----|-------10-12------|
|-11----13----------|------------------|
|-------------------|------------------|
|-------------------|------------------|
|-------------------|------------------|


B5 C5 C#5
W H H
|-------------------|------------------------|
|-------------------|------------------------|
|--4----------------|-5-----------6----------|
|--4----------------|-5-----------6----------|
|--2----------------|-3-----------4----------|
|-------------------|------------------------|
|
| H E E E E E E E E E E E E
|-------14-10-------|---------12-10-9--------|
|-12----------12-10-|-9-10-12---------12-10--|
|-------------------|------------------------|
|-------------------|------------------------|
|-------------------|------------------------|
|-------------------|------------------------|


F#5 D5
W W
|----------------------|------------------|
|----------------------|------------------|
|----------------------|--7---------------|
|--4-------------------|--7---------------|
|--4-------------------|--5---------------|
|--2-------------------|------------------|
|
| H E E E E H E E E E
|-------------------12-|-10----------9-12-|
|-12b14-------10-12----|-------10-12------|
|--9b11----13----------|------------------|
|----------------------|------------------|
|----------------------|------------------|
|----------------------|------------------|


B5 C5 C#5
W H H
|-------------------|------------------------|
|-------------------|------------------------|
|--4----------------|-5-----------6----------|
|--4----------------|-5-----------6----------|
|--2----------------|-3-----------4----------|
|-------------------|------------------------|
|
| H E E E E E E E E E E E E
|-------17-10-------|---------12-10-9--------|
|-12----------12-10-|-9-10-12---------12-10--|
|-------------------|------------------------|
|-------------------|------------------------|
|-------------------|------------------------|
|-------------------|------------------------|


G#5 B5
H +Q. E +W
|-----------------------------|------------------------|
|-----------------------------|------------------------|
|---------------------------4-|--(4)-------------------|
|--6----------(6)-----------4-|--(4)-------------------|
|--6----------(6)-----------2-|--(2)-------------------|
|--4----------(4)-------------|------------------------|
|
| E E E E S S E E E +E E E E E E E E
|-----------------------------|------------------------|
|----------12-----12----------|------------------------|
|-13----13----13-----13-------|------------------------|
|----13-----------------13-11-|-(11)-9-11-13-11-9------|
|-----------------------------|-------------------11-9-|
|-----------------------------|------------------------|


C#5 D5 C#5 B5
H +Q. E +Q. E +Q Q
|-------------------------|------------------------------|
|-------------------------|------------------------------|
|--6-----------(6)------7-|--(7)-----------6-(6)-----4---|
|--6-----------(6)------7-|--(7)-----------6-(6)-----4---|
|--4-----------(4)------5-|--(5)-----------4-(4)-----2---|
|-------------------------|------------------------------|
|
| E E E E +Q E E +E E S S E Q Q
|-------------------------|------------------------------|
|-------------------------|---------12-------12b14--12---|
|----------11-(11)--12-13-|-(13)-13----13-11-------------|
|-11-12-13----------------|------------------------------|
|-------------------------|------------------------------|
|-------------------------|------------------------------|


G#5 B5
H +Q. E +W
|-----------------------------|------------------------|
|-----------------------------|------------------------|
|---------------------------4-|--(4)-------------------|
|--6----------(6)-----------4-|--(4)-------------------|
|--6----------(6)-----------2-|--(2)-------------------|
|--4----------(4)-------------|------------------------|
|
| E E E E S S E E E +E E E E E E E E
|-----------------------------|------------------------|
|----------12-----12----------|------------------------|
|-13----13----13-----13-------|------------------------|
|----13-----------------13-11-|-(11)-9-11-13-11-9------|
|-----------------------------|-------------------11-9-|
|-----------------------------|------------------------|


C#5 D5 C#5 B5
H +Q. E +Q. E +Q Q
|-------------------------------|------------------------|
|-------------------------------|------------------------|
|--6-----------(6)----------7---|-(7)-------6-(6)----4---|
|--6-----------(6)----------7---|-(7)-------6-(6)----4---|
|--4-----------(4)----------5---|-(5)-------4-(4)----2---|
|-------------------------------|------------------------|
|
| E E E E +E E S S S S E E E E E E +Q
|-------------------------------|------------------------|
|-------------------------------|------------------------|
|-------------------------------|------------------------|
|----13-12-11-(11)-9-11-12-11-9-|-11--9----11-----9-(9)--|
|-11----------------------------|-------11---------------|
|-------------------------------|------------------------|


Verse 3
E5 E5 D#5 D5 C#5
PM--------------------------------------------------|
E S S S S S S S S S S S S S S E S S E S S E S S E S S
|-------------------------------|-------------------------|
|-------------------------------|-------------------------|
|-9-----------------------------|-------------------------|
|-9-----------------------------|-9-----8-----7-----6-----|
|-7-7-7-7-7-7-7-7-7-7-7-7-7-7-7-|-7-7-7-6-6-6-5-5-5-4-4-4-|
|-------------------------------|-------------------------|


C5 G5 A5
PM------------------------|
E S S S S S S S S S S S S S S H H
|-------------------------------|-----------|
|-------------------------------|-----------|
|-5-----------------------------|-----------|
|-5-----------------------------|-5----7----|
|-3-3-3-3-3-3-3-3-3-3-3-3-3-3-3-|-5----7----|
|-------------------------------|-3----5----|


E5 E5 D#5 D5 C#5
PM--------------------------------------------------|
E S S S S S S S S S S S S S S E S S E S S E S S E S S
|-------------------------------|-------------------------|
|-------------------------------|-------------------------|
|-9-----------------------------|-------------------------|
|-9-----------------------------|-9-----8-----7-----6-----|
|-7-7-7-7-7-7-7-7-7-7-7-7-7-7-7-|-7-7-7-6-6-6-5-5-5-4-4-4-|
|-------------------------------|-------------------------|


C5 D5
PM------------------------|
E S S S S S S S S S S S S S S W
|-------------------------------|------|
|-------------------------------|------|
|-5-----------------------------|-7----|
|-5-----------------------------|-7----|
|-3-3-3-3-3-3-3-3-3-3-3-3-3-3-3-|-5----|
|-------------------------------|------|


E5 B5 C5 D5
W W W W
||-----------|----------|----------|-------||
||o----------|----------|----------|------o||
||--9--------|-4--------|-5--------|-7-----||
||--9--------|-4--------|-5--------|-7-----||
||o-7--------|-2--------|-3--------|-5----o||
||-----------|----------|----------|-------||


C5 D5
E S S S S S S S S S S S S S S E S S S S S S S S S S S S S S
|-------------------------------|-------------------------------|
|-------------------------------|-------------------------------|
|-5-----------------------------|-7-----------------------------|
|-5-----------------------------|-7-----------------------------|
|-3-3-3-3-3-3-3-3-3-3-3-3-3-3-3-|-5-5-5-5-5-5-5-5-5-5-5-5-5-5-5-|
|-------------------------------|-------------------------------|
|
| Gtr III
| E S S S S S S S S S S S S S S E S S S S S S S S S S S S S S
|-------------------------------|-------------------------------|
|-------------------------------|-------------------------------|
|-5-----------------------------|-7-----------------------------|
|-5-----------------------------|-7-----------------------------|
|-3-3-3-3-3-3-3-3-3-3-3-3-3-3-3-|-5-5-5-5-5-5-5-5-5-5-5-5-5-5-5-|
|-------------------------------|-------------------------------|


E5
E E E E E E E E E E E E E E E E
|-----------------|-------------------|
|-----------------|-------------------|
|-9---9-7-9---9-7-|--9----8---7---6---|
|-----------------|--9----8---7---6---|
|-7---7-5-7---7-5-|--7----6---5---4---|
|-----------------|-------------------|
|
| W +W
|-----------------|-------------------|
|-----------------|-------------------|
|-----------------|-------------------|
|-2---------------|-(2)---------------|
|-2---------------|-(2)---------------|
|-0---------------|-(0)---------------|


C5 B5
E S S S S S S S S S S S S S S E S S S S S S S S S S S S S S
|-------------------------------|-------------------------------|
|-------------------------------|-------------------------------|
|-5-----------------------------|-4-----------------------------|
|-5-----------------------------|-4-----------------------------|
|-3-3-3-3-3-3-3-3-3-3-3-3-3-3-3-|-2-2-2-2-2-2-2-2-2-2-2-2-2-2-2-|
|-------------------------------|-------------------------------|
|
| E S S S S S S S S S S S S S S E S S S S S S S S S S S S S S
|-------------------------------|-------------------------------|
|-------------------------------|-------------------------------|
|-5-----------------------------|-4-----------------------------|
|-5-----------------------------|-4-----------------------------|
|-3-3-3-3-3-3-3-3-3-3-3-3-3-3-3-|-2-2-2-2-2-2-2-2-2-2-2-2-2-2-2-|
|-------------------------------|-------------------------------|


E5
E E E E E E E E E E E E E E E E
|-----------------|-------------------|
|-----------------|-------------------|
|-9---9-7-9---9-7-|--9----8---7---6---|
|-----------------|--9----8---7---6---|
|-7---7-5-7---7-5-|--7----6---5---4---|
|-----------------|-------------------|
|
| W +W
|-----------------|-------------------|
|-----------------|-------------------|
|-----------------|-------------------|
|-2---------------|-(2)---------------|
|-2---------------|-(2)---------------|
|-0---------------|-(0)---------------|


C5 D5/A
W W
|----------|------|
|----------|------|
|-5--------|------|
|-5--------|-0----|
|-3--------|-0----|
|----------|------|


Chorus
E5 C5 A5 A#5 B5
W W W H H
||-----------|----------|----------|-----------|
||o----------|----------|----------|-----------|
||-----------|-5--------|----------|-----------|
||--2--------|-5--------|-7--------|-8----9----|
||o-2--------|-3--------|-7--------|-8----9----|
||--0--------|----------|-5--------|-6----7----|


E5 C5 G5 B5
W W W W
|----------|----------|----------|-------||
|----------|----------|----------|------o||
|----------|-5--------|----------|-4-----||
|-2--------|-5--------|-5--------|-4-----||
|-2--------|-3--------|-5--------|-2----o||
|-0--------|----------|-3--------|-------||


E5 E5
PM----| PM----------| PM----| PM----------|
E E E E H E S S E E E E Q E E E E H E S S E E E E Q
|--------------|------------------|--------------|-------------------|
|--------------|------------------|--------------|-------------------|
|--------------|------------------|--------------|-------------------|
|---------2----|---------------0--|---------2----|---------------0---|
|---------2----|-0-0-0-0-0-1-1----|---------2----|-0-0-0-0-0-1-1-----|
|-0-0-0-0-0----|------------------|-0-0-0-0-0----|-------------------|


E5 D#5 D5 G5
E E S S S S E E S S E E E E E E E Q
|-----------------------|----------------|
|-----------------------|----------------|
|-----------------------|-9---8---7------|
|-----------------------|-9---8---7---5--|
|-----------------------|-7---6---5---5--|
|-0-0-0-0-0-0-0-0-0-0-0-|-------------3--|


D5 C#5 A5 E5
E E S S S S E E S S E E E E E E E Q
|-----------------------|-----------------|
|-----------------------|-----------------|
|-----------------------|-7---6---2---9---|
|-----------------------|-7---6---2---9---|
|-----------------------|-5---4---0---7---|
|-3-3-3-3-3-3-3-3-3-3-3-|-----------------|


E5 D#5 D5 G5
E E S S S S E E S S E E E E E E E Q
|-----------------------|----------------|
|-----------------------|----------------|
|-----------------------|-9---8---7------|
|-----------------------|-9---8---7---5--|
|-----------------------|-7---6---5---5--|
|-0-0-0-0-0-0-0-0-0-0-0-|-------------3--|


G E E D E E D E5
E E S S S S E E S S E E E E E E E E E H H
|-----------------------|-----------------|------------*|
|-----------------------|-----------------|------------*|
|-----------------------|-9---9-7-9---9-7-|-9---------*|
|-----------------------|-----------------|-9---------*|
|-----------------------|-7---7-5-7---7-5-|-7---------*|
|-3-3-3-3-3-3-3-3-3-3-3-|-----------------|------------*|



Duration Legend
---------------
W - whole; H - half; Q - quarter; E - 8th; S - 16th; T - 32nd; X - 64th; a - acciaccatura
+ - note tied to previous; . - note dotted; .. - note double dotted
Uncapitalized letters represent notes that are staccato (1/2 duration)
Irregular groupings are notated above the duration line
Duration letters will always appear directly above the note/fret number it represents the
duration for. Duration letters with no fret number below them represent rests. Multi-
bar rests are notated in the form Wxn, where n is the number of bars to rest for. Low
melody durations appear below the staff

Tablature Legend
----------------
h - hammer-on
p - pull-off
b - bend
pb - pre-bend
r - bend release (if no number after the r, then release immediately)
/ - slide into or out of (from/to "nowhere")
s - legato slide
S - shift slide
- natural harmonic
[n] - artificial harmonic
n(n) - tapped harmonic
~ - vibrato
tr - trill
T - tap
TP - trem. picking
PM - palm muting
n/ - tremolo bar dip; n = amount to dip
n - tremolo bar down
n/ - tremolo bar up
/n - tremolo bar inverted dip
= - hold bend; also acts as connecting device for hammers/pulls
<> - volume swell (louder/softer)
x - on rhythm slash represents muted slash
o - on rhythm slash represents single note slash

Misc Legend
-----------
| - bar
|| - double bar
||o - repeat start
o|| - repeat end
*| - double bar (ending)
: - bar (freetime)
$ - Segno
& - Coda
Tempo markers - = BPM(8/16=s8/s16), where s8 = swing 8ths, s16 = swing 16ths

-----------------------------
|  , ,   |
|     http://akords.org     |
-----------------------------

 (: 0)
    :
  • Black Chamber
  • And The Story Ends
  • Valhalla
  • Weird Dreams
  • Girl 2
  •  
    , . '.

    ':*
    E-Mail:*
    :
    , : *
     
      

    BLIBL-