|  
 
:  
  : :  
      ?    

  |

akords.org » B » Blind Guardian » Born In A Mourning Hall

Blind Guardian - Born In A Mourning Hall 

* * * * * * * * * * * * * * * * * * * * * * *
* Album: Imaginations from the other side *
* Titel: Born in a mourning hall *
* *
* Teanscribed by: Niklas Lehto *
* Comments? Mail me at N_Lehto@hotmail.com *
* * * * * * * * * * * * * * * * * * * * * * *


Well, I have no idea how to tab some parts of the leadguitar, although I know how to play it. If
you have any problems to play after this transcription, feel free to mail me!

TABLATURE EXPLANATION

HBR = Strike the note and bend up 1/2 step, then release the bend back to the original note. (Rapidly)
All three notes are tied, only the first note is struck.
FBR = Same as above, but bend the note one whole step.
PFB = Prebend the note one whole step.
R = Release a bend to the original note.
A.H = Atrificial harmonic. The note is fretted normally and a harmonic is produced by adding the
edge of the tumb or the tip of the indexfinger of the right hand to the normal pick attack.
~ = Vibrato.



Listen to the recording for timing.

Intro:

RhythmGuitar

|----------------------------------------------------------------|
|----------------------------------------------------------------|
|8---8-6-8---8-6-8---8-6-8---8-6-8---8-6-8---8-6-8---7---6-------|
|8---8-6-8---8-6-8---8-6-8---8-6-8---8-6-8---8-6-8---7---6---4---|
|6---6-4-6---6-4-6---6-4-6---6-4-6---6-4-6---6-4-6---5---4---4---|
|------------------------------------------------------------2---|


|----------------------------------------------------------------|
|----------------------------------------------------------------|
|8---8-6-8---8-6-8---8-6-8---8-6-8---8-6-8---8-6-----------------|
|8---8-6-8---8-6-8---8-6-8---8-6-8---8-6-8---8-6-4-------6-------|
|6---6-4-6---6-4-6---6-4-6---6-4-6---6-4-6---6-4-4-------6-------|
|------------------------------------------------2-------4-------|

Repeat Once, then:


LeadGuitar
D#5 C#5 G#5 D#5
|----------------|-------------|---------|-------------------|-------|--------------|----|
|----------------|-------------|---------|9-8HBRp6-----------|-------|--------------|----|
|--------------8-|-----8-6-5---|6-8------|----------6-8-8FB--|8------|--------------|----|
|--------5-6-8---|-------------|----6----|-------------------|---6-8-|8FB----10-8-6-|8---|
|6---------------|-------------|---------|-------------------|-------|--------------|----|
|----------------|-------------|---------|-------------------|-------|--------------|----|


|-----------------------|
|-----------------------|
|5--6--8--6--5HBR-------|
|-------------------8---|
|-----------------------|
|-----------------------|

D#5 C#5 G#5 D#5
A.H------------------------
|----------------|-----------------|---------|-------------------|--------|----------------|----|
|----------------|-----------------|---------|9-8HBRp6-----------|---9-11-|11FB---PFB11R-9-|11--|
|--------------8-|-----8-6FBR--5---|6-8------|----------6-8-8FB--|8~------|----------------|----|
|--------5-6-8---|-----------------|----6----|-------------------|--------|----------------|----|
|6---------------|-----------------|---------|-------------------|--------|----------------|----|
|----------------|-----------------|---------|-------------------|--------|----------------|----|
/
|
Hold on the bend, then release.

D#5
|-----------------------|
|-----------------------|
|-----------------------|
|-----------------------|
|-----------------------|
|-----------------------|


Verse 1:

D#5
In fact it was close to a real fallout

everything's under control
F#5 G#5 D#5
the speaker said with a serious smile
F#5 G#5 D#5
behind his mask he knew the truth

D#5
I'll bring the new age of better ways

the TV preacher said
F#5 G#5 D#5
just pay to - day
F#5 G#5 D#5
pay to - day

D#5 C#5 D#5
Worlds dressed in black
C#5 D#5 C#5 D#5
on earth's judgement's day

and I?
I know it cant go on
forbidden signs increase
I'm sitting still at home
and watching

Chorus:

D#5 B5 G#5 A5 A#5
Born in a mourning hall
D#5 B5
pale clouds feared the unborn child
F#5 A#5
then it grow up with growing plans

D#5
of sucide At this point, sucide and Born join.

D#5 B5 G#5 A5 A#5
Born in a mourning hall
D#5 B5
shadows left the fear inside
F#5 A#5
that Peter Pan will never reach
D#5
the other side



More to come...

-----------------------------
|  , ,   |
|     http://akords.org     |
-----------------------------

 (: 0)
    :
  • Born In A Mourning Hall
  • Hall Of The Mountain King
  • Tomorrows Dream
  • Innocence 2
  • Adams Song
  •  
    , . '.

    ':*
    E-Mail:*
    :
    , : *
     
      

    BLIBL-