|  
 
:  
  : :  
      ?    

  |

akords.org » B » Blind Guardian » Banish From Sanctuary

Blind Guardian - Banish From Sanctuary 2

Banish From Santuary
by Blind Guardian

Taken from the album
Tokyo Tales (Live)

Transcribed by
Mikko Issakainen (miissaka@silmu.cc.jyu.fi)

Tempo = 352

----- 3 ----- 1 2 3 4
|-----------------|-----------------|-----------------|-----------------|
|-----------------|-----------------|-----------------|-----------------|
|-----------------|-----------------|-----------------|-----------------|
|-----------------|-----------------|-----------------|-----------------|
|-0-0-0-0-0-0-0-0-|-0-0-0-0-0-0-0-0-|-3-----5-----6---|-5---3-----------|
|-----------------|-----------------|-----------------|-----------------|

----- 3 ----- 1 2 3 4
|-----------------|-----------------|-----------------|-----------------|
|-----------------|-----------------|-----------------|-----------------|
|-----------------|-----------------|-5-----7-----8---|-7---5-----------|
|-7-7-7-7-7-7-7-7-|-7-7-7-7-7-7-7-7-|-----------------|-----------------|
|-----------------|-----------------|-----------------|-----------------|
|-----------------|-----------------|-----------------|-----------------|

----- 3 ----- 1 2 3 4
|-5-5-5-5-5-5-5-5-|-5-5-5-5-5-5-5-5-|-8-----10----11--|-10--8---\------|
|-----------------|-----------------|-----------------|-----------------|
|-----------------|-----------------|-----------------|-----------------|
|-----------------|-----------------|-----------------|-----------------|
|-----------------|-----------------|-----------------|-----------------|
|-----------------|-----------------|-----------------|-----------------|

In deserts I was preaching
1 2 3 4 1 2 3 4 1 2 3 4 1 2 3 4
Pm-------------------------------------------------------
|-----------------|-----------------|-----------------|-----------------|
|-----------------|-----------------|-----------------|-----------------|
|-6---------------|-----------------|-----------------|---------6---7---|
|-6---------------|-----------------|-----------------|---------6---7---|
|-4---4-4-4-4-4-4-|-4-4-4-4-4-4-4-4-|-4-4-4-4-4-4-4-4-|-4-4-4-4-4---5---|
|-----------------|-----------------|-----------------|-----------------|

1 2 3 4 1 2 3 4 1 2 3 4 1 2 3 4
Pm-------------------------------------------------------
|-----------------|-----------------|-----------------|-----------------|
|-----------------|-----------------|-----------------|-----------------|
|-6---------------|-----------------|-----------------|---------6-------|
|-6---------------|-----------------|-----------------|---------6-------|
|-4---4-4-4-4-4-4-|-4-4-4-4-4-4-4-4-|-4-4-4-4-4-4-4-4-|-4-4-4-4-4-------|
|-----------------|-----------------|-----------------|-----------------|

1 2 3 4 1 2 3 4 1 2 3 4 1 2 3 4
Pm-------------------------------------------------------
|-----------------|-----------------|-----------------|-----------------|
|-----------------|-----------------|-----------------|-----------------|
|-2---------------|-----------------|-----------------|---------2-------|
|-2---------------|-----------------|-----------------|---------2-------|
|-0---0-0-0-0-0-0-|-0-0-0-0-0-0-0-0-|-0-0-0-0-0-0-0-0-|-0-0-0-0-0-------|
|-----------------|-----------------|-----------------|-----------------|

1 2 3 4 1 2 3 4 1 2 3 4 1 2 3 4
Pm-------------------------------------------------------
|-----------------|-----------------|-----------------|-----------------|
|-----------------|-----------------|-----------------|-----------------|
|-6---------------|-----------------|-----------------|---------6-------|
|-6---------------|-----------------|-----------------|---------6-------|
|-4---4-4-4-4-4-4-|-4-4-4-4-4-4-4-4-|-4-4-4-4-4-4-4-4-|-4-4-4-4-4-------|
|-----------------|-----------------|-----------------|-----------------|


1 2 3 4 1 2 3 4 1 2 3 4 1 2 3 4
|-----------------|-----------------|-----------------|-----------------|
|-----------------|-----------------|-----------------|-----------------|
|-----------------|-----------------|-----------------|-----------------|
|---------7-7-7-7-|-6-6-6-6---------|-9-9-9-9-9-9-7-7-|-7-7-7-7-6-6-6-6-|
|-9-9-9-9---------|---------9-9-9-9-|-----------------|-----------------|
|-----------------|-----------------|-----------------|-----------------|
|
| Pm-(Both Guitars)----------------------------------------------------
|-----------------|-----------------|-----------------|-----------------|
|-----------------|-----------------|-----------------|-----------------|
|-----------------|-----------------|-----------------|-----------------|
|-----------------|-----------------|-----------------|-----------------|
|-----------------|-----------------|-----------------|-----------------|
|-2-2-2-2-2-2-2-2-|-2-2-2-2-2-2-2-2-|-2-2-2-2-2-2-2-2-|-2-2-2-2-2-2-2-2-|

1 2 3 4 1 2 3 4 1 2 3 4 1 2 3 4
|-----------------|-----------------|-----------------|-----------------|
|-----------------|-----------------|-----------------|-----------------|
|-----------------|-----------------|-----------------|-----------------|
|---------7-------|-6-------4-------|--------Pm-------|---------4-------|
|-5---------------|-----------------|-5-------5-------|-7---------------|
|-----------------|-----------------|-----------------|-----------------|
|
|
|-----------------|-----------------|-----------------|-----------------|
|-----------------|-----------------|-----------------|-----------------|
|-----------------|-----------------|-----------------|-----------------|
|-----------------|-----------------|-----------------|-----------------|
|-5-5-5-5-5-5-5-5-|-5-5-5-5-5-5-5-5-|-5-5-5-5-5-5-5-5-|-5-5-5-5-5-5-5-5-|
|-----------------|-----------------|-----------------|-----------------|

1 2 3 4 1 2 3 4(6x) 1 2 3 4
|-----------------||-----------------||-----------------|
|-----------------||-----------------||-----------------|
|-----------------||*---------------*||-----------------|
|-4-4-4-4-4-4-4-4-||*4-4-4-4-4-4-4-4*||-4-4-4-4-4-------|
|-4---------------||-----------------||---------4-------|
|-2-2-2-2-2-2-2-2-||-2-2-2-2-2-2-2-2-||-2-2-2-2-2-------|


|--------|--------|--------|--------|--------|--------|--------|--------|
|--------|--------|--------|--------|--------|--------|--------|--------|
|-6~~----|--------|/5~~----|--------|--------|--------|--------|--------|
|--------|--------|--------|--------|-4~~----|--------|--------|--------|
|--------|--------|--------|--------|--------|--------|--------|--------|
|--------|--------|--------|--------|--------|--------|-2~~----|--------|
|
|F#5 F5 B5 F#5
| / | | / | | / | | / | |

1 2 3 4 1 2 3 4 1 2 3 4 1 2 3 4
|-------------------|-----------------|--H-P--------------|--------------9--|
|---------------H---|-9-------9---10--|-9-10-9------------|--9---10--12-----|
|-----11--11--10-11-|-----------------|--------11--10--11-|-----------------|
|-11----------------|-----11----------|-------------------|-----------------|
|-------------------|-----------------|-------------------|-----------------|
|-------------------|-----------------|-------------------|-----------------|
|
|F#5 F5
| / | / | / | / |

1 2 3 4 1 2 3 4 1 2 3 4 1 2 3 4
|-------H--P--P------|-----------------|-----------------|-----------------|
|-12--10-12-10-9-12--|-10--9---10--10--|-9---------------|-----------------|
|--------------------|-----------------|-----10--9---10--|(10)-------------|
|--------------------|-----------------|-----------------|-----------------|
|--------------------|-----------------|-----------------|-----------------|
|--------------------|-----------------|-----------------|-----------------|
|
| B5 F#5
| / | / | / | |

1 2 3 4 1 2 3 4 1 2 3 4 1 2 3 4
|-----------------|-----------------|-----------------|-----------------|
|-----------------|-----------------|-----------------|-----------------|
|-6---------------|-----------------|-----------------|-----------------|
|-6---------------|-----------------|-----------------|-----------------|
|-4---4-4-4-4-4-4-|-4-4-4-4-4-4-4-4-|-4-4-4-4-4-4-4-4-|-4-4-4-4-4-4-4-4-|
|-----------------|-----------------|-----------------|-----------------|

1 2 3 4 1 2 3 4 1 2 3 4 1 2 3 4
|-----------------|-----------------|-----------------|-----------------|
|-----------------|-----------------|-----------------|-----------------|
|-7---------------|-----------------|-----------------|-----------------|
|-7---------------|-----------------|-----------------|-----------------|
|-5---5-5-5-5-5-5-|-5-5-5-5-5-5-5-5-|-5-5-5-5-5-5-5-5-|-5-5-5-5-5-5-5-5-|
|-----------------|-----------------|-----------------|-----------------|

CHORUS:
No - o No turning ba - ck I'm
F#5 G#5 E5 C#5
| / | | / | | / | | / | |

ba - nished from sanctua - ry
F#5 G#5 E5 C#5
| / | | / | | / | | / | |

F#5 G#5 E5 C#5
| / | | / | | / | | / | |

F#5 G#5 E5 C#5
| / | | / | | / | | / | |

1 2 3 4 1 2 3 4 1 2 3 4 1 2 3 4
|-----------------|-------------------|-----------------|-------------------|
|-----------------|-------------------|-----------------|-------------------|
|-----------------|--------------H-P--|-----------------|--------------H-P--|
|-----7---6-------|-9-------7---6-7-6-|-----7---5-------|-------------6-7-6-|
|-9-----------9---|-------------------|-9-----------9---|-7-------9---------|
|-----------------|-------------------|-----------------|-------------------|

1 2 3 4 1 2 3 4 1 2 3 4 1 2 3 4
|-----------------|-------------------|-----------------|-----------------|
|-----------------|-------------------|-----------------|-----------------|
|-----------------|--------------H-P--|-----------------|-----------------|
|-----7---6-------|-9-------7---6-7-6-|-----7---5-------|-----------------|
|-9-----------9---|-------------------|-9-----------9---|-7-------9-------|
|-----------------|-------------------|-----------------|-----------------|

1 2 3 4 1 2 3 4 1 2 3 4 1 2 3 4
D5 C#5
Pm-------------------------------
||-----------------|-----------------|-----------------|-----------------|
||-----------------|-----------------|-----------------|-----------------|
||*----------------|-----------------|-Ah--Ah------Ah--|-----------------|
||*----------------|-4-4-4-4-6-6-6-6-|-7---7-------6---|-----------------|
||-5-5-5-5-7-7-7-7-|-----------------|-----------------|-----------------|
||-----------------|-----------------|-----------------|-----------------|

1 2 3 4 1 2 3 4 1 2 3 4 1 2 3 4
A5 A5(7th fr) G#5
Pm-------------------------------
|-----------------|-----------------|-----------------|-----------------|
|-----------------|-----------------|-----------------|---H-P-----------|
|-----------------|---------4-4-4-4-|-6-----------9---|--6-9-6--6-------|
|-4-4-4-4--6-6-6-6|-7-7-7-7---------|-----------------|-------------9---|
|-----------------|-----------------|-----------------|-----------------|
|-----------------|-----------------|-----------------|-----------------|

1 2 3 4 1 2 3 4 1 2 3 4 1 2 3 4
D5 C#5
|-----------------|-----5---4-------|-----------------|---------S-------|
|---------7-------|-------------7---|-5---------------|----------------|
|-6---------------|-----------------|-----------------|-----------------|
|-----------------|-----------------|-----------------|-----------------|
|-----------------|-----------------|-----------------|-----------------|
|-----------------|-----------------|-----------------|-----------------|

1->
1 2 3 4 1 2 3 4 1 2 3 4 1 2 3 4
A F#5
|-----------------|-----------------|-----------------|-----------------||
|-----------------|-----------------|-----------------|-----------------||
|-----------------|-----------------|-----------------|----------------*||
|-7-----------6---|---------4-------|-------------4---|---------6------*||
|-----------------|-----------------|-4---------------|-----------------||
|-----------------|-----------------|-----------------|-----------------||

2->
1 2 3 4 1 2 3 4
|-----------------|-----------------|
|-----------------|-----------------|
|-----------------|---------4-------|
|-6-----------7---|-----------------|
|-----------------|-----------------|
|-----------------|-----------------|


CHORUS

1 2 3 4 1 2 3 4 1 2 3 4 1 2 3 4
||-----------------|-----------------|-----------------|-----------------|
||-----------------|-----------------|-----------------|-----------------|
||*11------11--13--|-//////-----|-13------13--14--|-//////-----|
||*----11----------|-----------------|-----11----------|-----------------|
||-----------------|-----------------|-----------------|-----------------|
||-----------------|-----------------|-----------------|-----------------|

1 2 3 4 1 2 3 4 1 2 3 4 1 2 3 4
|-----------------|-----------------|-----------------|-----------------||
|-----------------|-----------------|-----------------|-----------------||
|-14--11--14--16--|-//////-----|-16--14--13------|----------------*||
|-----------------|-----------------|-------------15--|-//////----*||
|-----------------|-----------------|-----------------|-----------------||
|-----------------|-----------------|-----------------|-----------------||


T P H T P H T P H T P H T P H T P H
|-21-17-14-17-19-17-14-17-21-17-14-17-19-17-14-17-21-17-14-17-19-17-16-17---|
|---------------------------------------------------------------------------|
|--------x------------x-------------x-------------x-------------------------|
|---------------------------------------------------------------------------|
|---------------------------------------------------------------------------|
|---------------------------------------------------------------------------|
T P P
|-21-19-17-16-17b(19)r(17)b(19)r(17)---------------H-H-P----------|
|-------------------------------------17--17--17-17182018---------|
|-----------------------------------------------------------------|
|-----------------------------------------------------------------|
|-----------------------------------------------------------------|
|-----------------------------------------------------------------|

-----------------------------
|  , ,   |
|     http://akords.org     |
-----------------------------

 (: 0)
    :
  • Banish From Sanctuary
  • Quest For Tanelorn
  • Majesty Live
  • Another Holy War
  • The Bards Song
  •  
    , . '.

    ':*
    E-Mail:*
    :
    , : *
     
      

    BLIBL-