|  
 
:  
  : :  
      ?    

  |

akords.org » B » Blind Guardian » Banish From Sanctuary

Blind Guardian - Banish From Sanctuary 

Tittle: Banish From Sanctuary
Album: Follow The Blind
exported from midi
------------------------------------------------------------------------
notes: try to listen to midi before play this


Banish From Sanctuary
by Blind Guardian


Intro

E||---------------------------------|-------------------------|
B||---------------------------------|-------------------------|
G||---------------------------------|----------2--------------|
D||---------------------------------|--4---6---0---6---4------|
A||--6------------------------------|--2---4-------4---2------|
E||--4--4-4-4-4-4-4-4-4-4-4-4-4-4-4-|-------------------------|



---------------------------------|-------------------------|
---------------------------------|-------------------------|
---------------------------------|----------2--------------|
---------------------------------|--4---6---0---6---4------|
--6------------------------------|--2---4-------4---2------|
--4--4-4-4-4-4-4-4-4-4-4-4-4-4-4-|-------------------------|



----------------------------------|-------------------------|
----------------------------------|--0---2---3---2---0------|
--1-1-1-1-1-1-1-1-1-1-1-1-1-1-1-1-|-------------------------|
----------------------------------|-------------------------|
----------------------------------|-------------------------|
----------------------------------|-------------------------|



--4-4-4-4-4-4-4-4-4-4-4-4-4-4-4-4-|--7---9---10---9---7------|
----------------------------------|--------------------------|
----------------------------------|--------------------------|
----------------------------------|--------------------------|
----------------------------------|--------------------------|
----------------------------------|--------------------------|

Verse

---------------------------------|---------------------------------|
---------------------------------|---------------------------------|
--0------------------------------|---------------------------------|
---------------------------------|------------------------------6--|
--3--3-3-3-3-3-3-3-3-3-3-3-3-3-3-|--3-3-3-3-3-3-3-3-3-3-3-3-3-3-4--|
---------------------------------|---------------------------------|



---------------------------------|---------------------------------|
---------------------------------|---------------------------------|
--0------------------------------|--------------------------0------|
---------------------------------|---------------------------------|
--3--3-3-3-3-3-3-3-3-3-3-3-3-3-3-|--3-3-3-3-3-3-3-3-3-3-3-3-3------|
---------------------------------|---------------------------------|



---------------------------------|---------------------------------|
---------------------------------|---------------------------------|
---------------------------------|---------------------------------|
---------------------------------|---------------------------------|
--6------------------------------|--------------------------6------|
--4--4-4-4-4-4-4-4-4-4-4-4-4-4-4-|--4-4-4-4-4-4-4-4-4-4-4-4-4------|



---------------------------------|---------------------------------|
---------------------------------|---------------------------------|
--0------------------------------|---------------------------------|
---------------------------------|------------------------------6--|
--3--3-3-3-3-3-3-3-3-3-3-3-3-3-3-|--3-3-3-3-3-3-3-3-3-3-3-3-3-3-4--|
---------------------------------|---------------------------------|



---------------------------------|---------------------------------|
---------------------------------|---------------------------------|
--0------------------------------|--------------------------0------|
---------------------------------|---------------------------------|
--3--3-3-3-3-3-3-3-3-3-3-3-3-3-3-|--3-3-3-3-3-3-3-3-3-3-3-3-3------|
---------------------------------|---------------------------------|



---------------------------------|---------------------------------|
---------------------------------|---------------------------------|
---------------------------------|---------------------------------|
---------------------------------|---------------------------------|
--6------------------------------|--------------------------6------|
--4--4-4-4-4-4-4-4-4-4-4-4-4-4-4-|--4-4-4-4-4-4-4-4-4-4-4-4-4------|



---------------------------------|-------------------|
---------------------------------|-------------------|
--0------------------------------|--0----------------|
---------------------------------|-------------------|
--3--3-3-3-3-3-3-3-3-3-3-3-3-3-3-|--3----------------|
---------------------------------|-------------------|



----------------------------------|----------------------------------|
----------------------------------|----------------------------------|
----------1-1-1-1-0-0-0-0---------|--3-3-3-3-3-3-1-1-1-1-1-1-0-0-0-0-|
--3-3-3-3-----------------3-3-3-3-|----------------------------------|
----------------------------------|----------------------------------|
----------------------------------|----------------------------------|



----------------------------------|----------------------------------|
----------------------------------|----------------------------------|
----------1-1-1-1-0-0-0-0---------|--3-3-3-3-3-3-1-1-1-1-1-1-0-0-0-0-|
--3-3-3-3-----------------3-3-3-3-|----------------------------------|
----------------------------------|----------------------------------|
----------------------------------|----------------------------------|



------------------------------|---------------------------|
------------------------------|---------------------------|
---------1------0-------------|---------------------------|
-----------------------3------|-----------1---------------|
--4---------------------------|--4-----------------4------|
------------------------------|---------------------------|



------------------------------|---------------------------|
------------------------------|---------------------------|
---------1------0-------------|---------------------------|
-----------------------3------|-----------1---------------|
--4---------------------------|--4-----------------4------|
------------------------------|---------------------------|



---------------------------------|----------------------------------|
---------------------------------|----------------------------------|
--5------------------------------|----------------------------------|
--3--3-3-3-3-3-3-3-3-3-3-3-3-3-3-|--3-3-3-3-3-3-3-3-3-3-3-3-3-3-3-3-|
---------------------------------|----------------------------------|
---------------------------------|----------------------------------|



----------------------------------|---------------------------------|
----------------------------------|--------------------------1------|
----------------------------------|---------------------------------|
--3-3-3-3-3-3-3-3-3-3-3-3-3-3-3-3-|--3-3-3-3-3-3-3-3-3-3-3-3-3------|
----------------------------------|---------------------------------|
----------------------------------|---------------------------------|



------------------------------|---------------------------|
------------------------------|---------------------------|
---------1------0-------------|---------------------------|
-----------------------3------|-----------1---------------|
--4---------------------------|--4-----------------4------|
------------------------------|---------------------------|



------------------------------|---------------------------|
------------------------------|---------------------------|
---------1------0-------------|---------------------------|
-----------------------3------|-----------1---------------|
--4---------------------------|--4-----------------4------|
------------------------------|---------------------------|



---------------------------------|----------------------------------|
---------------------------------|----------------------------------|
--5------------------------------|----------------------------------|
--3--3-3-3-3-3-3-3-3-3-3-3-3-3-3-|--3-3-3-3-3-3-3-3-3-3-3-3-3-3-3-3-|
---------------------------------|----------------------------------|
---------------------------------|----------------------------------|



----------------------------------|---------------------------------|
----------------------------------|--------------------------1------|
----------------------------------|---------------------------------|
--3-3-3-3-3-3-3-3-3-3-3-3-3-3-3-3-|--3-3-3-3-3-3-3-3-3-3-3-3-3------|
----------------------------------|---------------------------------|
----------------------------------|---------------------------------|



------------------------------|---------------------------|
------------------------------|---------------------------|
---------1------0-------------|---------------------------|
-----------------------3------|-----------1---------------|
--4---------------------------|--4-----------------4------|
------------------------------|---------------------------|



------------------------------|---------------------------|-------------------|
------------------------------|------------------------1--|--1----------------|
---------1------0-------------|--3--------1------3--3-----|-------------------|
-----------------------3------|---------------------------|-------------------|
--4---------------------------|---------------------------|-------------------|
------------------------------|---------------------------|-------------------|



-------------------|-------------------|-------------------|
--0----------------|-------------------|-------------------|
-------------------|-------------------|-------------------|
-------------------|--3----------------|-------------------|
-------------------|-------------------|-------------------|
-------------------|-------------------|--1----------------|



-----1--1-0-1--3-----3--4--|----3-4-3-1--0--1--3--4--6--|
--1---------------1--------|----------------------------|
---------------------------|----------------------------|
---------------------------|----------------------------|
---------------------------|----------------------------|
---------------------------|----------------------------|



--8--6--4-6-4-3-6--4--3--4--|----3--1--0--1--------|
----------------------------|----------------------|
----------------------------|----------------------|
----------------------------|----------------------|
----------------------------|----------------------|
----------------------------|----------------------|



---------------------------------|----------------------------------|
---------------------------------|----------------------------------|
--0------------------------------|----------------------------------|
---------------------------------|----------------------------------|
--3--3-3-3-3-3-3-3-3-3-3-3-3-3-3-|--3-3-3-3-3-3-3-3-3-3-3-3-3-3-3-3-|
---------------------------------|----------------------------------|



---------------------------------|----------------------------------|
---------------------------------|----------------------------------|
---------------------------------|----------------------------------|
--6------------------------------|----------------------------------|
--4--4-4-4-4-4-4-4-4-4-4-4-4-4-4-|--4-4-4-4-4-4-4-4-4-4-4-4-4-4-4-4-|
---------------------------------|----------------------------------|

chorus:

-------------------|-------------------|-------------------|-------------------|
-------------------|--3----------------|-------------------|-------------------|
--5----------------|--0----------------|-------------------|--3----------------|
--3----------------|-------------------|--6----------------|--1----------------|
-------------------|-------------------|--4----------------|-------------------|
-------------------|-------------------|-------------------|-------------------|



-------------------|-------------------|-------------------|-------------------|
--1----------------|--3----------------|-------------------|-------------------|
-------------------|--0----------------|-------------------|--3----------------|
--3----------------|-------------------|--6----------------|--1----------------|
-------------------|-------------------|--4----------------|-------------------|
-------------------|-------------------|-------------------|-------------------|



-------------------|-------------------|-------------------|-------------------|
--1----------------|--3----------------|-------------------|-------------------|
-------------------|--0----------------|-------------------|--3----------------|
--3----------------|-------------------|--6----------------|--1----------------|
-------------------|-------------------|--4----------------|-------------------|
-------------------|-------------------|-------------------|-------------------|



-------------------|-------------------|-------------------|-------------------|
--1----------------|--3----------------|-------------------|-------------------|
-------------------|--0----------------|-------------------|--3----------------|
--3----------------|-------------------|--6----------------|--1----------------|
-------------------|-------------------|--4----------------|-------------------|
-------------------|-------------------|-------------------|-------------------|



----------------------------|----------------------------|
----------------------------|----------------------------|
-----1--0-----3------1--0-1-|-----1--0-------------------|
--3--------3----------------|--3--------3--1------3--1-3-|
----------------------------|----------------------------|
----------------------------|----------------------------|



----------------------------|----------------------------|
----------------------------|----------------------------|
-----1--0-----3------1--0-1-|-----1--0-------------------|
--3--------3----------------|--3--------3--1------3--1-3-|
----------------------------|----------------------------|
----------------------------|----------------------------|



----------------------------|----------------------------|
----------------------------|----------------------------|
-----1--0-----3------1--0-1-|-----1--0-------------------|
--3--------3----------------|--3--------3--1------3--1-3-|
----------------------------|----------------------------|
----------------------------|----------------------------|



----------------------------|----------------------------|
----------------------------|----------------------------|
-----1--0-----3------1--0-1-|-----1--0-------------------|
--3--------3----------------|--3--------3--1------3--1-3-|
----------------------------|----------------------------|
----------------------------|----------------------------|



----------------------------------|---------------------------|
----------------------------------|---------------------------|
--------------------------0-0-0-0-|--1--------0---------------|
----------1-1-1-1-3-3-3-3---------|--------------------1------|
--4-4-4-4-------------------------|---------------------------|
----------------------------------|---------------------------|



----------------------------------|----------------------------|
----------------------------------|--1--------4--3--4-3--1-----|
----------0-0-0-0-1-1-1-1-3-3-3-3-|-------------------------3--|
--3-3-3-3-------------------------|----------------------------|
----------------------------------|----------------------------|
----------------------------------|----------------------------|



---------1------1--4--3--1--|-------------------|---------------------------|
--1-------------------------|--4----------------|---------------------------|
----------------------------|-------------------|--1--------0---------------|
----------------------------|-------------------|--------------------3------|
----------------------------|-------------------|---------------------------|
----------------------------|-------------------|---------------------------|



---------------------------|----------------------------------|
---------------------------|----------------------------------|
---------------------------|--------------------------0-0-0-0-|
-----------3--------5------|----------1-1-1-1-3-3-3-3---------|
--3------------------------|--4-4-4-4-------------------------|
---------------------------|----------------------------------|



---------------------------|----------------------------------|
---------------------------|----------------------------------|
--1--------0---------------|----------0-0-0-0-1-1-1-1-3-3-3-3-|
--------------------1------|--3-3-3-3-------------------------|
---------------------------|----------------------------------|
---------------------------|----------------------------------|



----------------------------|---------1------1--4--3--1--|-------------------|
--1--------4--3--4-3--1-----|--1-------------------------|--4----------------|
-------------------------3--|----------------------------|-------------------|
----------------------------|----------------------------|-------------------|
----------------------------|----------------------------|-------------------|
----------------------------|----------------------------|-------------------|



---------------------------|---------------------------|-------------------|
---------------------------|---------------------------|--1----------------|
--1--------0---------------|--0--------1--------3------|-------------------|
--------------------3------|---------------------------|--3----------------|
---------------------------|---------------------------|-------------------|
---------------------------|---------------------------|-------------------|



-------------------|-------------------|-------------------|-------------------|
--3----------------|-------------------|-------------------|--1----------------|
--0----------------|-------------------|--3----------------|-------------------|
-------------------|--6----------------|--1----------------|--3----------------|
-------------------|--4----------------|-------------------|-------------------|
-------------------|-------------------|-------------------|-------------------|



-------------------|-------------------|-------------------|-------------------|
--3----------------|-------------------|-------------------|--1----------------|
--0----------------|-------------------|--3----------------|-------------------|
-------------------|--6----------------|--1----------------|--3----------------|
-------------------|--4----------------|-------------------|-------------------|
-------------------|-------------------|-------------------|-------------------|



-------------------|-------------------|-------------------|-------------------|
--3----------------|-------------------|-------------------|--1----------------|
--0----------------|-------------------|--3----------------|-------------------|
-------------------|--6----------------|--1----------------|--3----------------|
-------------------|--4----------------|-------------------|-------------------|
-------------------|-------------------|-------------------|-------------------|



-------------------|-------------------|-------------------|
--3----------------|-------------------|-------------------|
--0----------------|-------------------|--3----------------|
-------------------|--6----------------|--1----------------|
-------------------|--4----------------|-------------------|
-------------------|-------------------|-------------------|



--1-----1--3----------|--3-----3--4----------|--4--1--4--8----------|
-----1----------------|-----1----------------|----------------------|
----------------------|----------------------|----------------------|
----------------------|----------------------|----------------------|
----------------------|----------------------|----------------------|
----------------------|----------------------|----------------------|



--6--4--3--0----------|--1-----1--3----------|--3-----3--4----------|
----------------------|-----1----------------|-----1----------------|
----------------------|----------------------|----------------------|
----------------------|----------------------|----------------------|
----------------------|----------------------|----------------------|
----------------------|----------------------|----------------------|



--4--1--4--8----------|--6--4--3--0----------|
----------------------|----------------------|
----------------------|----------------------|
----------------------|----------------------|
----------------------|----------------------|
----------------------|----------------------|



--20-------------------20----------------------20-------------|
-----21----21-23-21-------21----21-23-21----21----21----21-23-|
--------22----------22-------22----------22----------22-------|
--------------------------------------------------------------|
--------------------------------------------------------------|
--------------------------------------------------------------|



-----------20-18-16----16--------------|--13-11-11-9-8--9-8-6--8-6-4------|
--21----21----------18-----------14-14-|--------------------------------0-|
-----22--------------------------------|------------------------------6---|
---------------------------------------|----------------------------------|
---------------------------------------|----------------------------------|
---------------------------------------|----------------------------------|



-----------------------|--------1--3--4--6--8--9--|--11--13------11--------16--|
-----------------------|--2--4--------------------|----------------------------|
--3--3-1----1----------|--------------------------|----------------------------|
---------4-------------|--------------------------|----------------------------|
-----------------------|--------------------------|----------------------------|
-----------------------|--------------------------|----------------------------|



----15-16-15-13--11--13--11--9--11--|--9--------8-9-8--------4-3-|
------------------------------------|----------------------------|
------------------------------------|----------------------------|
------------------------------------|----------------------------|
------------------------------------|----------------------------|
------------------------------------|----------------------------|



--1----------4--3--1--|-------------------|--4--------3--------1------|
----------------------|--4----------------|---------------------------|
----------------------|-------------------|---------------------------|
----------------------|-------------------|---------------------------|
----------------------|-------------------|---------------------------|
----------------------|-------------------|---------------------------|



--3-3-4-4-6-6-8-8-9-9-11-11-13------|-----13--11-9-8-6-8-6-4--8------6-|
------------------------------------|--14------------------------------|
------------------------------------|----------------------------------|
------------------------------------|----------------------------------|
------------------------------------|----------------------------------|
------------------------------------|----------------------------------|



----4---------------------|--6-----------6--8--9--11--|
--6---6-4-----------------|-----6--8--9---------------|
----------5--5-3-1--------|---------------------------|
--------------------------|---------------------------|
--------------------------|---------------------------|
--------------------------|---------------------------|



--18-20-------18-16-----------|----16---16---16--------|
--------------------18--------|------------------------|
------------------------------|------------------------|
------------------------------|------------------------|
------------------------------|------------------------|
------------------------------|------------------------|



--13--11--9-11-9-8-8------8-8-8-8-|--8-9-8-6-8-6-4-6-8--------4--|
----------------------------------|------------------------------|
----------------------------------|------------------------------|
----------------------------------|------------------------------|
----------------------------------|------------------------------|
----------------------------------|------------------------------|



--6-4-6-4-----------------|--20------------------------------------------|
----------6--6-4----------|------21-----21-------------------------------|
-----------------5--------|---------22------22-----22--------------------|
--------------------------|---------------------22-----22-----22---------|
--------------------------|--------------------------------23-----23--20-|
--------------------------|----------------------------------------------|



----------------------16--15--13--|
------------------18--------------|
--------------17------------------|
----------18----------------------|
------20--------------------------|
--20------------------------------|



--20------------------------------------------|
------21-----21-------------------------------|
----------22-----22-----22--------------------|
---------------------22-----22-----22---------|
--------------------------------23-----23--20-|
----------------------------------------------|



------------------13--16--15--13--|
--------------13------------------|
----------13----------------------|
------15--------------------------|
----------------------------------|
--16------------------------------|



--20------------------------------------------|
------21-----21-------------------------------|
----------22-----22-----22--------------------|
---------------------22-----22-----22---------|
--------------------------------23-----23--20-|
----------------------------------------------|



----------------------16--15------|
------------------18----------17--|
--------------17------------------|
----------18----------------------|
------20--------------------------|
--20------------------------------|



--------------------------15-15-15-15-13-13-12-12-|------------------------|
--17-17-17-17-18-18-18-18-------------------------|--13--------------------|
--------------------------------------------------|----------------13------|
--------------------------------------------------|------------------------|
--------------------------------------------------|------------------------|
--------------------------------------------------|------------------------|



------------------------6---------|---------------------|
--13--11------11------9---9-8--9--|----8-----6----------|
----------13----------------------|-------8-------------|
----------------------------------|---------------------|
----------------------------------|---------------------|
----------------------------------|---------------------|



-----------3------4--6--8--|----6--4--3----------|
-----4--6------------------|---------------------|
--6------------------------|---------------------|
---------------------------|---------------------|
---------------------------|---------------------|
---------------------------|---------------------|



--8--6--4--6------4-6-4-3--4--|----3-----1----------|
------------------------------|-------4-------------|
------------------------------|---------------------|
------------------------------|---------------------|
------------------------------|---------------------|
------------------------------|---------------------|



--------1--3------4--6--8--|----6--4--3----------|
--2--4---------------------|---------------------|
---------------------------|---------------------|
---------------------------|---------------------|
---------------------------|---------------------|
---------------------------|---------------------|

Verse

---------------------------------|---------------------------------|
---------------------------------|---------------------------------|
--0------------------------------|---------------------------------|
---------------------------------|------------------------------6--|
--3--3-3-3-3-3-3-3-3-3-3-3-3-3-3-|--3-3-3-3-3-3-3-3-3-3-3-3-3-3-4--|
---------------------------------|---------------------------------|



---------------------------------|---------------------------------|
---------------------------------|---------------------------------|
--0------------------------------|--------------------------0------|
---------------------------------|---------------------------------|
--3--3-3-3-3-3-3-3-3-3-3-3-3-3-3-|--3-3-3-3-3-3-3-3-3-3-3-3-3------|
---------------------------------|---------------------------------|



---------------------------------|---------------------------------|
---------------------------------|---------------------------------|
---------------------------------|---------------------------------|
---------------------------------|---------------------------------|
--6------------------------------|--------------------------6------|
--4--4-4-4-4-4-4-4-4-4-4-4-4-4-4-|--4-4-4-4-4-4-4-4-4-4-4-4-4------|



---------------------------------|---------------------------------|
---------------------------------|---------------------------------|
--0------------------------------|---------------------------------|
---------------------------------|------------------------------6--|
--3--3-3-3-3-3-3-3-3-3-3-3-3-3-3-|--3-3-3-3-3-3-3-3-3-3-3-3-3-3-4--|
---------------------------------|---------------------------------|



---------------------------------|---------------------------------|
---------------------------------|---------------------------------|
--0------------------------------|--------------------------0------|
---------------------------------|---------------------------------|
--3--3-3-3-3-3-3-3-3-3-3-3-3-3-3-|--3-3-3-3-3-3-3-3-3-3-3-3-3------|
---------------------------------|---------------------------------|



---------------------------------|---------------------------------|
---------------------------------|---------------------------------|
---------------------------------|---------------------------------|
---------------------------------|---------------------------------|
--6------------------------------|--------------------------6------|
--4--4-4-4-4-4-4-4-4-4-4-4-4-4-4-|--4-4-4-4-4-4-4-4-4-4-4-4-4------|



---------------------------------|-------------------|
---------------------------------|-------------------|
--0------------------------------|--0----------------|
---------------------------------|-------------------|
--3--3-3-3-3-3-3-3-3-3-3-3-3-3-3-|--3----------------|
---------------------------------|-------------------|



----------------------------------|----------------------------------|
----------------------------------|----------------------------------|
----------1-1-1-1-0-0-0-0---------|--3-3-3-3-3-3-1-1-1-1-1-1-0-0-0-0-|
--3-3-3-3-----------------3-3-3-3-|----------------------------------|
----------------------------------|----------------------------------|
----------------------------------|----------------------------------|



----------------------------------|----------------------------------|
----------------------------------|----------------------------------|
----------1-1-1-1-0-0-0-0---------|--3-3-3-3-3-3-1-1-1-1-1-1-0-0-0-0-|
--3-3-3-3-----------------3-3-3-3-|----------------------------------|
----------------------------------|----------------------------------|
----------------------------------|----------------------------------|



------------------------------|---------------------------|
------------------------------|---------------------------|
---------1------0-------------|---------------------------|
-----------------------3------|-----------1---------------|
--4---------------------------|--4-----------------4------|
------------------------------|---------------------------|



------------------------------|---------------------------|
------------------------------|---------------------------|
---------1------0-------------|---------------------------|
-----------------------3------|-----------1---------------|
--4---------------------------|--4-----------------4------|
------------------------------|---------------------------|



---------------------------------|----------------------------------|
---------------------------------|----------------------------------|
--5------------------------------|----------------------------------|
--3--3-3-3-3-3-3-3-3-3-3-3-3-3-3-|--3-3-3-3-3-3-3-3-3-3-3-3-3-3-3-3-|
---------------------------------|----------------------------------|
---------------------------------|----------------------------------|



----------------------------------|---------------------------------|
----------------------------------|--------------------------1------|
----------------------------------|---------------------------------|
--3-3-3-3-3-3-3-3-3-3-3-3-3-3-3-3-|--3-3-3-3-3-3-3-3-3-3-3-3-3------|
----------------------------------|---------------------------------|
----------------------------------|---------------------------------|



------------------------------|---------------------------|
------------------------------|---------------------------|
---------1------0-------------|---------------------------|
-----------------------3------|-----------1---------------|
--4---------------------------|--4-----------------4------|
------------------------------|---------------------------|



------------------------------|---------------------------|
------------------------------|---------------------------|
---------1------0-------------|---------------------------|
-----------------------3------|-----------1---------------|
--4---------------------------|--4-----------------4------|
------------------------------|---------------------------|



---------------------------------|----------------------------------|
---------------------------------|----------------------------------|
--5------------------------------|----------------------------------|
--3--3-3-3-3-3-3-3-3-3-3-3-3-3-3-|--3-3-3-3-3-3-3-3-3-3-3-3-3-3-3-3-|
---------------------------------|----------------------------------|
---------------------------------|----------------------------------|



----------------------------------|---------------------------------|
----------------------------------|--------------------------1------|
----------------------------------|---------------------------------|
--3-3-3-3-3-3-3-3-3-3-3-3-3-3-3-3-|--3-3-3-3-3-3-3-3-3-3-3-3-3------|
----------------------------------|---------------------------------|
----------------------------------|---------------------------------|



------------------------------|---------------------------|
------------------------------|---------------------------|
---------1------0-------------|---------------------------|
-----------------------3------|-----------1---------------|
--4---------------------------|--4-----------------4------|
------------------------------|---------------------------|



------------------------------|---------------------------|-------------------|
------------------------------|------------------------1--|--1----------------|
---------1------0-------------|--3--------1------3--3-----|-------------------|
-----------------------3------|---------------------------|-------------------|
--4---------------------------|---------------------------|-------------------|
------------------------------|---------------------------|-------------------|



-------------------|-------------------|-------------------|
--0----------------|-------------------|-------------------|
-------------------|-------------------|-------------------|
-------------------|--3----------------|-------------------|
-------------------|-------------------|-------------------|
-------------------|-------------------|--1----------------|



-----1--1-0-1--3-----3--4--|----3-4-3-1--0--1--3--4--6--|
--1---------------1--------|----------------------------|
---------------------------|----------------------------|
---------------------------|----------------------------|
---------------------------|----------------------------|
---------------------------|----------------------------|



--8--6--4-6-4-3-6--4--3--4--|----3--1--0--1--------|
----------------------------|----------------------|
----------------------------|----------------------|
----------------------------|----------------------|
----------------------------|----------------------|
----------------------------|----------------------|



---------------------------------|----------------------------------|
---------------------------------|----------------------------------|
--0------------------------------|----------------------------------|
---------------------------------|----------------------------------|
--3--3-3-3-3-3-3-3-3-3-3-3-3-3-3-|--3-3-3-3-3-3-3-3-3-3-3-3-3-3-3-3-|
---------------------------------|----------------------------------|



---------------------------------|----------------------------------|
---------------------------------|----------------------------------|
---------------------------------|----------------------------------|
--6------------------------------|----------------------------------|
--4--4-4-4-4-4-4-4-4-4-4-4-4-4-4-|--4-4-4-4-4-4-4-4-4-4-4-4-4-4-4-4-|
---------------------------------|----------------------------------|

chorus:

-------------------|-------------------|-------------------|-------------------|
-------------------|--3----------------|-------------------|-------------------|
--5----------------|--0----------------|-------------------|--3----------------|
--3----------------|-------------------|--6----------------|--1----------------|
-------------------|-------------------|--4----------------|-------------------|
-------------------|-------------------|-------------------|-------------------|



-------------------|-------------------|-------------------|-------------------|
--1----------------|--3----------------|-------------------|-------------------|
-------------------|--0----------------|-------------------|--3----------------|
--3----------------|-------------------|--6----------------|--1----------------|
-------------------|-------------------|--4----------------|-------------------|
-------------------|-------------------|-------------------|-------------------|



-------------------|-------------------|-------------------|-------------------|
--1----------------|--3----------------|-------------------|-------------------|
-------------------|--0----------------|-------------------|--3----------------|
--3----------------|-------------------|--6----------------|--1----------------|
-------------------|-------------------|--4----------------|-------------------|
-------------------|-------------------|-------------------|-------------------|



-------------------|-------------------|-------------------|-------------------|
--1----------------|--3----------------|-------------------|-------------------|
-------------------|--0----------------|-------------------|--3----------------|
--3----------------|-------------------|--6----------------|--1----------------|
-------------------|-------------------|--4----------------|-------------------|
-------------------|-------------------|-------------------|-------------------|



-------------------|-------------------|-------------------|-------------------|
--1----------------|--3----------------|-------------------|-------------------|
-------------------|--0----------------|-------------------|--3----------------|
--3----------------|-------------------|--6----------------|--1----------------|
-------------------|-------------------|--4----------------|-------------------|
-------------------|-------------------|-------------------|-------------------|



-------------------|-------------------|-------------------|-------------------|
--1----------------|--3----------------|-------------------|-------------------|
-------------------|--0----------------|-------------------|--3----------------|
--3----------------|-------------------|--6----------------|--1----------------|
-------------------|-------------------|--4----------------|-------------------|
-------------------|-------------------|-------------------|-------------------|



----------------------------|----------------------------|
----------------------------|----------------------------|
-----1--0-----3------1--0-1-|-----1--0-------------------|
--3--------3----------------|--3--------3--1------3--1-3-|
----------------------------|----------------------------|
----------------------------|----------------------------|



----------------------------|----------------------------|
----------------------------|----------------------------|
-----1--0-----3------1--0-1-|-----1--0-------------------|
--3--------3----------------|--3--------3--1------3--1-3-|
----------------------------|----------------------------|
----------------------------|----------------------------|



----------------------------|----------------------------|
----------------------------|----------------------------|
-----1--0-----3------1--0-1-|-----1--0-------------------|
--3--------3----------------|--3--------3--1------3--1-3-|
----------------------------|----------------------------|
----------------------------|----------------------------|



----------------------------|----------------------------|
----------------------------|----------------------------|
-----1--0-----3------1--0-1-|-----1--0-------------------|
--3--------3----------------|--3--------3--1------3--1-3-|
----------------------------|----------------------------|
----------------------------|----------------------------|



---------------------||
---------------------||
---------------------||
--3------------------||
---------------------||
---------------------||

-----------------------------
|  , ,   |
|     http://akords.org     |
-----------------------------

 (: 0)
    :
  • Banish From Sanctuary
  • Shut Up & Dance
  • Going Away To College
  • Ill Follow The Sun 2
  • Dysentery Gary
  •  
    , . '.

    ':*
    E-Mail:*
    :
    , : *
     
      

    BLIBL-