|  
 
:  
  : :  
      ?    

  |

akords.org » B » Blind Guardian » Ashes To Ashes

Blind Guardian - Ashes To Ashes 

#----------------------------------PLEASE NOTE---------------------------------#
#This file is the author's own work and represents their interpretation of the #
#song. You may only use this file for private study, scholarship, or research. #
#------------------------------------------------------------------------------#

ASHES TO ASHES
As recorded by Blind Guardian
(From the 1992 Album SOMEWHERE FAR BEYOND)


Transcribed by Drimascus_God_Of_Thunder

Words and Music by Blind Guardian



Gtr I (Eb Ab Db Gb Bb Eb) - 'Rhythm Guitar'
Gtr II (Eb Ab Db Gb Bb Eb) - 'Lead Guitar 1'
Gtr III (Eb Ab Db Gb Bb Eb) - 'Lead Guitar 2'


Intro
Q=173
A5 Ab5
4/4
Gtr I
PM----------------------------------------
e e e e e e e s s e e e e e e E S S
|-----------------------|-------------------|
|-----------------------|-------------------|
|-----------------------|-------------------|
|--7----7----7----7-----|-6---6---6---6-----|
|----5----5----5----5-5-|---5---5---5---5-5-|
|-----------------------|-------------------|
|
| Gtr II
| PM----------------------------------------
| E E E E E E E S S E E E E E E E S S
|-----------------------|-------------------|
|-10---10---10---10-----|-9---9---9---9-----|
|----7----7----7----7-7-|---7---7---7---7-7-|
|-----------------------|-------------------|
|-----------------------|-------------------|
|-----------------------|-------------------|


A5 Ab5
-----------------------------------------|
e e e e e e e s s e e e e e e E S S
|-----------------------|--------------------|
|-----------------------|--------------------|
|-----------------------|--------------------|
|--7----7----7----7-----|-6---6---6---6------|
|----5----5----5----5-5-|---5---5---5---5-5--|
|-----------------------|--------------------|
|
|-----------------------------------------|
| E E E E E E E S S E E E E E E E S S
|-----------------------|--------------------|
|-10---10---10---10-----|-9---9---9---9------|
|----7----7----7----7-7-|---7---7---7---7-7--|
|-----------------------|--------------------|
|-----------------------|--------------------|
|-----------------------|--------------------|


D5 G#5
H. Q +H.. S S
|--------------------|----------------|
|--------------------|----------------|
|-7------------------|----------------|
|-7---------------6--|-(6)------------|
|-5---------------6--|-(6)--------7-7-|
|-----------------4--|-(4)------------|
|
| E E E E E E Q +W
|--------------------|----------------|
|----10---10---10-9--|-(9)------------|
|-7-----7----7-------|----------------|
|--------------------|----------------|
|--------------------|----------------|
|--------------------|----------------|


E5 G5 F5
E S S E S S E S S E S S E S S E S S E S S E S S
|---------------------------|--------------------------------|
|---------------------------|--------------------------------|
|---------------------------|--------------------------------|
|---9-9-9-8-8-8-7-7-7-------|--------------------------------|
|-7-------------------10-10-|-10-10-10-10-8-8-8-10-10-10-7-7-|
|---------------------------|--------------------------------|
|
| W H H
|---------------------------|--------------------------------|
|---------------------------|--------------------------------|
|---------------------------|--------------------------------|
|-2-------------------------|--5--------------3--------------|
|-2-------------------------|--5--------------3--------------|
|-0-------------------------|--3--------------1--------------|


E5 G5 F5
E S S E S S E S S E S S E S S E S S E S S E S S
|---------------------------|--------------------------------|
|---------------------------|--------------------------------|
|---------------------------|--------------------------------|
|---9-9-9-8-8-8-7-7-7-------|--------------------------------|
|-7-------------------10-10-|-10-10-10-10-8-8-8-10-10-10-7-7-|
|---------------------------|--------------------------------|
|
| W H H
|---------------------------|--------------------------------|
|---------------------------|--------------------------------|
|---------------------------|--------------------------------|
|-2-------------------------|--5--------------3--------------|
|-2-------------------------|--5--------------3--------------|
|-0-------------------------|--3--------------1--------------|


E5 E5
~~ ~~
E q q q E E q q Q. E q q q E E q q Q.
|----------------|--------------|----------------|--------------|
|----------------|--------------|----------------|--------------|
|----------------|--------------|----------------|--------------|
|----------------|--------------|----------------|--------------|
|---2----2--2--2-|---1--1--1----|---2----2--2--2-|---1--1--1----|
|-0--------------|--------------|-0--------------|--------------|
|
| E H.. W E H.. W
|----------------|--------------|----------------|--------------|
|----------------|--------------|----------------|--------------|
|----------------|--------------|----------------|--------------|
|-2--------------|--------------|-2--------------|--------------|
|-2--------------|--------------|-2--------------|--------------|
|-0--------------|--------------|-0--------------|--------------|


E5 B5 Bb5 G5 Bb5
~~ ~~
E q q q E E q q Q. E q q q E E q q Q.
|---------------|--------------|--------------|--------------|
|---------------|--------------|--------------|--------------|
|---4--4---4--4-|---3--3--3----|---4--4--4--4-|---3--3--3----|
|-2-------------|--------------|-5------------|--------------|
|---2--2---2--2-|---1--1--1----|---2--2--2--2-|---1--1--1----|
|-0-------------|--------------|-3------------|--------------|
|
| H H W W W
|---------------|--------------|--------------|--------------|
|---------------|--------------|--------------|--------------|
|--------4------|-3------------|--------------|-3------------|
|-2------4------|-3------------|-5------------|-3------------|
|-2------2------|-1------------|-5------------|-1------------|
|-0-------------|--------------|-3------------|--------------|


Verse1
E5 Eb5
PM-------------------------------------
e e e e e e e s s e e e e e e E S S
||--------------------|-------------------|
||o-------------------|-------------------|
||--------------------|-------------------|
||--9---9---9---9-----|-8---8---8---8-----|
||o---7---7---7---7-7-|---6---6---6---6-6-|
||--------------------|-------------------|
|
| PM-------------------------------------
| e e e e e e e s s e e e e e e e s s
||--------------------|-------------------|
||o-------------------|-------------------|
||--------------------|-------------------|
||--------------------|-------------------|
||o-7---7---7---7-----|-6---6---6---6-----|
||----7---7---7---7-7-|---6---6---6---6-6-|


E5 Eb5
-------------------------------------|
e e e e e e e s s e e e e e e E S S
|-------------------|---------------------||
|-------------------|--------------------o||
|-------------------|---------------------||
|-9---9---9---9-----|-8---8---8---8-------||
|---7---7---7---7-7-|---6---6---6---6-6--o||
|-------------------|---------------------||
|
|-------------------------------------|
| e e e e e e e s s e e e e e e e s s
|-------------------|---------------------||
|-------------------|--------------------o||
|-------------------|---------------------||
|-------------------|---------------------||
|-7---7---7---7-----|-6---6---6---6------o||
|---7---7---7---7-7-|---6---6---6---6-6---||


Solo1
G5
E S S S S S S S S S S S S S S
|-------------------------------------------------|
|-------------------------------------------------|
|-------------------------------------------------|
|--5----------------------------------------------|
|--5----------------------------------------------|
|--3-----3--3--3--3--3--3--3--3--3--3--3--3--3--3-|
|
| S S S S S S S S S S S S S S S S
|----------------17----------------------17-------|
|-20-19-17-19-20----20-19-20-19-17-19-20----20-19-|
|-------------------------------------------------|
|-------------------------------------------------|
|-------------------------------------------------|
|-------------------------------------------------|
|
| Gtr III
| S S S S S S S S S S S S S S S S
|-------------------------------------------------|
|----------------10----------------------10-------|
|-12-11--9-11-12----12-11-12-11--9-11-12----12-11-|
|-------------------------------------------------|
|-------------------------------------------------|
|-------------------------------------------------|


A5
E S S S S S S S S S S S S S S
|-------------------------------------------------|
|-------------------------------------------------|
|-------------------------------------------------|
|--7----------------------------------------------|
|--7----------------------------------------------|
|--5-----5--5--5--5--5--5--5--5--5--5--5--5--5--5-|
|
| S S S S S S S S S S S S S S S S
|----------------17----------------------17-------|
|-20-19-17-19-20----20-19-20-19-17-19-20----20-19-|
|-------------------------------------------------|
|-------------------------------------------------|
|-------------------------------------------------|
|-------------------------------------------------|
|
| S S S S S S S S S S S S S S S S
|-------------------------------------------------|
|----------------10----------------------10-------|
|-12-11--9-11-12----12-11-12-11--9-11-12----12-11-|
|-------------------------------------------------|
|-------------------------------------------------|
|-------------------------------------------------|


C5
W
|-------------------------------------------------|
|-------------------------------------------------|
|--5----------------------------------------------|
|--5----------------------------------------------|
|--3----------------------------------------------|
|-------------------------------------------------|
|
| S S S S S S S S S S S S S S S S
|-------------------------------------------------|
|-15-15-17-17-------15-15-------------------------|
|-------------17-17-------16-16-17-17-14-14-16-16-|
|-------------------------------------------------|
|-------------------------------------------------|
|-------------------------------------------------|
|
| S S S S S S S S S S S S S S S S
|-------------------------------------------------|
|-------------------------------------------------|
|--7--7--9--9--------7--7-------------------------|
|-------------10-10--------9--9-10-10--7--7--9--9-|
|-------------------------------------------------|
|-------------------------------------------------|


+W
|---------------------------------------|
|---------------------------------------|
|-(5)-----------------------------------|
|-(5)-----------------------------------|
|-(3)-----------------------------------|
|---------------------------------------|
|
| ~~~
| S S S S S S S S H
|---------------------------------------|
|--------------------[8]b9-([8])r[8]----|
|--------14-14--------------------------|
|-17--17-------16-16-17-----17---14-----|
|---------------------------------------|
|---------------------------------------|
|
| ~~~
| S S S S S S S S H
|---------------------------------------|
|---------------------------------------|
|---------------------------------------|
|---------7--7--------------------------|
|-10--10--------9--9-10-----10----7-----|
|---------------------------------------|


Verse2
E5 F5
E S S S S S S S S S S S S S S E S S S S S S S S S S S S S S
||--------------------------------|-------------------------------|
||o-------------------------------|-------------------------------|
||--------------------------------|-------------------------------|
||--2-----------------------------|-3-----------------------------|
||o-2-----------------------------|-3-----------------------------|
||--0-0-0-0-0-0-0-0-0-0-0-0-0-0-0-|-1-1-1-1-1-1-1-1-1-1-1-1-1-1-1-|


C5 Cb5
E S S S S S S S S S S S S S S E S S S S S S S S S S S S S S
|-------------------------------|--------------------------------||
|-------------------------------|-------------------------------o||
|-5-----------------------------|-4------------------------------||
|-5-----------------------------|-4------------------------------||
|-3-3-3-3-3-3-3-3-3-3-3-3-3-3-3-|-2-2-2-2-2-2-2-2-2-2-2-2-2-2-2-o||
|-------------------------------|--------------------------------||


Bridge
C5 B5Bb5 Bb5
Q. E H E S S S S S S S S S S S S S S
|--------------|-------------------------------------------------|
|--------------|-------------------------------------------------|
|--5----4-3----|--3----------------------------------------------|
|--5----4-3----|--3----------------------------------------------|
|--3----2-1----|--1-----1--1--1--1--1--1--1--1--1--1--1--1--1--1-|
|--------------|-------------------------------------------------|
|
| Gtr II
| T T T T
| Q. E H S S S S S S S S S S S S S S S S
|--------------|-18-15-11-15-18-15-11-15-18-15-11-15-18-15-11-15-|
|--------------|-------------------------------------------------|
|--------------|-------------------------------------------------|
|-10----9-8----|-------------------------------------------------|
|--------------|-------------------------------------------------|
|--------------|-------------------------------------------------|


C5 B5 Bb5 E5
Q. E H W
|----------------|--------|
|----------------|--------|
|--5-----4--3----|--------|
|--5-----4--3----|--2-----|
|--3-----2--1----|--2-----|
|----------------|--0-----|
|
| ~~
| Q. E H W
|-20----19-18----|-19----|
|----------------|--------|
|----------------|--------|
|-10-----9--8----|--------|
|----------------|--------|
|----------------|-12----|


C5 B5 Bb5 Bb5
Q. E H E S S S S S S S S S S S S S S
|----------------|-------------------------------------------------|
|----------------|-------------------------------------------------|
|--5-----4--3----|--3----------------------------------------------|
|--5-----4--3----|--3----------------------------------------------|
|--3-----2--1----|--1-----1--1--1--1--1--1--1--1--1--1--1--1--1--1-|
|----------------|-------------------------------------------------|
|
| T T T T
| Q. E H S S S S S S S S S S S S S S S S
|-20----19-18----|-18-15-11-15-18-15-11-15-18-15-11-15-18-15-11-15-|
|----------------|-------------------------------------------------|
|----------------|-------------------------------------------------|
|-10-----9--8----|-------------------------------------------------|
|----------------|-------------------------------------------------|
|----------------|-------------------------------------------------|


C5 B5 Bb5 E5
Q. E H W
|----------------|--------|
|----------------|--------|
|--5-----4--3----|--------|
|--5-----4--3----|--2-----|
|--3-----2--1----|--2-----|
|----------------|--0-----|
|
| ~~
| Q. E H W
|-20----19-18----|-19----|
|----------------|--------|
|----------------|--------|
|-10-----9--8----|--------|
|----------------|--------|
|----------------|-12----|


Solo2
E5
W +W
|-------------------------------------|--------------------------------------|
|-------------------------------------|--------------------------------------|
|-------------------------------------|--------------------------------------|
|--2----------------------------------|-(2)----------------------------------|
|--2----------------------------------|-(2)----------------------------------|
|--0----------------------------------|-(0)----------------------------------|
|
| S S S S S S S S S S S S S S S S S S S S S S S S S S S S S S S S
|-15-0-0-0-14-0-0-0-15-0-0-0-14-0-0-0-|-15--0-0-0-14-0-0-0-15-0-0-0-14-0-0-0-|
|-------------------------------------|--------------------------------------|
|-------------------------------------|--------------------------------------|
|-------------------------------------|--------------------------------------|
|-------------------------------------|--------------------------------------|
|-------------------------------------|--------------------------------------|


Bb5
W +W
|-------------------------------------|-----------------------------------------|
|-------------------------------------|-----------------------------------------|
|--3----------------------------------|-(3)-------------------------------------|
|--3----------------------------------|-(3)-------------------------------------|
|--1----------------------------------|-(1)-------------------------------------|
|-------------------------------------|-----------------------------------------|
|
| S S S S S S S S S S S S S S S S S S S S S S S S S S S S S S S S
|-15-0-0-0-12-0-0-0-15-0-0-0-12-0-0-0-|-15--0-0-0-12-0-0-0-15-0-0-0-12-0-0-0----|
|-------------------------------------|-----------------------------------------|
|-------------------------------------|-----------------------------------------|
|-------------------------------------|-----------------------------------------|
|-------------------------------------|-----------------------------------------|
|-------------------------------------|-----------------------------------------|


E5
W +W
|-------------------------------------|--------------------------------------|
|-------------------------------------|--------------------------------------|
|-------------------------------------|--------------------------------------|
|--2----------------------------------|-(2)----------------------------------|
|--2----------------------------------|-(2)----------------------------------|
|--0----------------------------------|-(0)----------------------------------|
|
| S S S S S S S S S S S S S S S S S S S S S S S S S S S S S S S S
|-15-0-0-0-14-0-0-0-15-0-0-0-14-0-0-0-|-15--0-0-0-14-0-0-0-15-0-0-0-14-0-0-0-|
|-------------------------------------|--------------------------------------|
|-------------------------------------|--------------------------------------|
|-------------------------------------|--------------------------------------|
|-------------------------------------|--------------------------------------|
|-------------------------------------|--------------------------------------|


Bb5
W +H.. S S
|-------------------------------------|------------------------------------------|
|-------------------------------------|------------------------------------------|
|--3----------------------------------|-(3)--------------------------------------|
|--3----------------------------------|-(3)-------------------------------7-7----|
|--1----------------------------------|-(1)--------------------------------------|
|-------------------------------------|-----------------------------------5-5----|
|
| S S S S S S S S S S S S S S S S S S S S S S S S S S S S S S S S
|-15-0-0-0-12-0-0-0-15-0-0-0-12-0-0-0-|-15---0-0-0-12-0-0-0-15-0-0-0-12-0-0-0----|
|-------------------------------------|------------------------------------------|
|-------------------------------------|------------------------------------------|
|-------------------------------------|------------------------------------------|
|-------------------------------------|------------------------------------------|
|-------------------------------------|------------------------------------------|


A5 C5 Bb5
E S S E S S E S S E S S E S S E S S E S S E S S
|---------------------------|--------------------------------|
|---------------------------|--------------------------------|
|---9-9-9-8-8-8-7-7-7-------|--------------------------------|
|-7-------------------10-10-|-10-10-10-10-8-8-8-10-10-10-7-7-|
|---7-7-7-6-6-6-5-5-5-------|--------------------------------|
|-5--------------------8--8-|--8--8--8--8-6-6-6--8--8--8-5-5-|
|
| W H H
|---------------------------|--------------------------------|
|---------------------------|--------------------------------|
|-2-------------------------|--5--------------3--------------|
|-2-------------------------|--5--------------3--------------|
|-0-------------------------|--3--------------1--------------|
|---------------------------|--------------------------------|


A5 C5 Bb5
E S S E S S E S S E S S E S S E S S E S S E S S
|---------------------------|-----------------------------------|
|---------------------------|-----------------------------------|
|---9-9-9-8-8-8-7-7-7-------|-----------------------------------|
|-7-------------------10-10-|-10-10-10-10-8-8-8-10-10-10-7-7----|
|---7-7-7-6-6-6-5-5-5-------|-----------------------------------|
|-5--------------------8--8-|--8--8--8--8-6-6-6--8--8--8-5-5----|
|
| W H H
|---------------------------|-----------------------------------|
|---------------------------|-----------------------------------|
|-2-------------------------|--5--------------3-----------------|
|-2-------------------------|--5--------------3-----------------|
|-0-------------------------|--3--------------1-----------------|
|---------------------------|-----------------------------------|


Verse3
A5 C5
E S S S S S S S S S S S S S S E S S S S S S S S S S S S S S
|-------------------------------|-------------------------------|
|-------------------------------|-------------------------------|
|-2-----------------------------|-5-----------------------------|
|-2-----------------------------|-5-----------------------------|
|-0-0-0-0-0-0-0-0-0-0-0-0-0-0-0-|-3-3-3-3-3-3-3-3-3-3-3-3-3-3-3-|
|-------------------------------|-------------------------------|


G5 E5 D#5D5
E S S S S S S S S S S S S S S S S Q. Q Q
|-------------------------------|------------------|
|-------------------------------|------------------|
|-------------------------------|------------------|
|-5-----------------------------|-----9----8--7----|
|-5-----------------------------|-----7----6--5----|
|-3-3-3-3-3-3-3-3-3-3-3-3-3-3-3-|-3-3--------------|


A5 C5
E S S S S S S S S S S S S S S E S S S S S S S S S S S S S S
|-------------------------------|-------------------------------|
|-------------------------------|-------------------------------|
|-2-----------------------------|-5-----------------------------|
|-2-----------------------------|-5-----------------------------|
|-0-0-0-0-0-0-0-0-0-0-0-0-0-0-0-|-3-3-3-3-3-3-3-3-3-3-3-3-3-3-3-|
|-------------------------------|-------------------------------|


G5 E5 F5 G5
E S S S S S S S S S S S S S S S S Q. Q Q
|-------------------------------|--------------------|
|-------------------------------|--------------------|
|-------------------------------|--------------------|
|-5-----------------------------|-----9----10--12----|
|-5-----------------------------|-----7-----8--10----|
|-3-3-3-3-3-3-3-3-3-3-3-3-3-3-3-|-3-3----------------|


Chorus
A5 C5 E5 G5
E E E E E E E E E E E E E E E E E E E E E E E E E E E E E E E E
||------------------|-----------------|-----------------|-------------------||
||o-----------------|-----------------|-----------------|------------------o||
||--2---------------|-5---------------|-----------------|-------------------||
||--2---------------|-5---------------|-2---------------|-5-----------------||
||o-0-0-0-0-0-0-0-0-|-3-3-3-3-3-3-3-3-|-2---------------|-5----------------o||
||------------------|-----------------|-0-0-0-0-0-0-0-0-|-3-3-3-3-3-3-3-3---||


A5 C5
E S S S S S S S S S S S S S S E S S S S S S S S S S S S S S
||--------------------------------|-------------------------------|
||o-------------------------------|-------------------------------|
||--2-----------------------------|-5-----------------------------|
||--2-----------------------------|-5-----------------------------|
||o-0-0-0-0-0-0-0-0-0-0-0-0-0-0-0-|-3-3-3-3-3-3-3-3-3-3-3-3-3-3-3-|
||--------------------------------|-------------------------------|


1. 2.
E5 G5 E5
E S S S S S S S S S S S S S S E S S S S S S S S S S S S S S q H. W
|-------------------------------|--------------------------------||-------------|------|
|-------------------------------|-------------------------------o||-------------|------|
|-------------------------------|--------------------------------||-------------|------|
|-2-----------------------------|-5------------------------------||--2----------|------|
|-2-----------------------------|-5-----------------------------o||--2----------|------|
|-0-0-0-0-0-0-0-0-0-0-0-0-0-0-0-|-3-3-3-3-3-3-3-3-3-3-3-3-3-3-3--||--0----------|------|


A5 C5
E S S S S S S S S S S S S S S E S S S S S S S S S S S S S S
||--------------------------------|-------------------------------|
||o-------------------------------|-------------------------------|
||--2-----------------------------|-5-----------------------------|
||--2-----------------------------|-5-----------------------------|
||o-0-0-0-0-0-0-0-0-0-0-0-0-0-0-0-|-3-3-3-3-3-3-3-3-3-3-3-3-3-3-3-|
||--------------------------------|-------------------------------|


1. 2.
E5 G5 E5 G5
E S S S S S S S S S S S S S S E S S S S S S S S S S S S S S W W
|-------------------------------|--------------------------------||-----------|------|
|-------------------------------|-------------------------------o||-----------|------|
|-------------------------------|--------------------------------||-----------|------|
|-2-----------------------------|-5------------------------------||--2--------|-5----|
|-2-----------------------------|-5-----------------------------o||--2--------|-5----|
|-0-0-0-0-0-0-0-0-0-0-0-0-0-0-0-|-3-3-3-3-3-3-3-3-3-3-3-3-3-3-3--||--0--------|-3----|


A5 A5
Gtr I
~~ ~~
E q q q E E q q Q. E q q q E E q q Q.
|--------------|----------------|--------------|----------------|
|--------------|----------------|--------------|----------------|
|--------------|----------------|--------------|----------------|
|--------------|----------------|--------------|----------------|
|---7--7--7--7-|-----6--6--6----|---7--7--7--7-|-----6--6--6----|
|-5------------|----------------|-5------------|----------------|
|
| Gtr II
| W +W W +W
|--------------|----------------|--------------|----------------|
|--------------|----------------|--------------|----------------|
|-2------------|-(2)------------|-2------------|-(2)------------|
|-2------------|-(2)------------|-2------------|-(2)------------|
|-0------------|-(0)------------|-0------------|-(0)------------|
|--------------|----------------|--------------|----------------|


Solo3
E5 F5
E S S S S S S S S S S S S S S E S S S S S S S S S S S S S S
|-------------------------------------|---------------------------------|
|-------------------------------------|---------------------------------|
|-------------------------------------|---------------------------------|
|--2----------------------------------|--3------------------------------|
|--2----------------------------------|--3------------------------------|
|--0----0-0-0-0-0-0-0-0-0-0--0-0--0-0-|--1-1-1-1-1-1-1--1-1-1-1-1-1-1-1-|
|
| H. E E H H
|-------------------------------------|---------------------------------|
|-15b17r====================15---17---|-18-------------15---------------|
|-------------------------------------|---------------------------------|
|-12b14r====================12---14---|-15-------------12---------------|
|-------------------------------------|---------------------------------|
|-------------------------------------|---------------------------------|
|
| Gtr III
| H. E E H H
|--------------------------------15---|---------------------------------|
|-18b20r====================18--------|-18-------------15---------------|
|-------------------------------------|---------------------------------|
|-------------------------------------|---------------------------------|
|-------------------------------------|---------------------------------|
|-------------------------------------|---------------------------------|


D5 E5
E S S S S S S S S S S S S S S E S S S S S S S S S S S S S S
|----------------------------------|---------------------------------------|
|----------------------------------|---------------------------------------|
|--7-------------------------------|--9------------------------------------|
|--7-------------------------------|--9------------------------------------|
|--5-5-5-5-5-5-5--5-5-5-5--5-5-5-5-|--7--7-7-7-7--7----7--7-7-7-7-7-7-7-7--|
|----------------------------------|---------------------------------------|
|
| H Q Q Q. E H
|----------------------------------|---------------------------------------|
|-15-------------17-------18-------|-18----------17b20r==17----------------|
|----------------------------------|---------------------------------------|
|-12-------------14-------15-------|-15----------14b17r==14----------------|
|----------------------------------|---------------------------------------|
|----------------------------------|---------------------------------------|
|
| H Q Q Q. E H
|----------------------------------|---------------------------------------|
|-15-------------17-------18-------|-18----------17b20r==17----------------|
|----------------------------------|---------------------------------------|
|----------------------------------|---------------------------------------|
|----------------------------------|---------------------------------------|
|----------------------------------|---------------------------------------|


F5 E5 D5 E5 F5 D5 D5 F5 D5 D5
Q Q Q Q H. Q Q Q Q Q
|-----------------|--------------|--------------------|
|-----------------|--------------|--------------------|
|-10---9---7---9--|-10--------7--|--7--10---7------7--|
|-10---9---7---9--|-10--------7--|--7--10---7------7--|
|--8---7---5---7--|--8--------5--|--5---8---5------5--|
|-----------------|--------------|--------------------|
|
| TP TP TP TP ~~~
| Q Q Q Q H. Q Q Q Q Q
|-----------------|--------------|---------15b17r=15--|
|-18--17--15--17--|-18-------15--|-15--18-------------|
|-----------------|--------------|--------------------|
|-----------------|--------------|--------------------|
|-----------------|--------------|--------------------|
|-----------------|--------------|--------------------|
|
| TP TP TP TP ~~~
| Q Q Q Q H. Q Q Q Q Q
|-----------------|--------------|---------15b17r=15--|
|-18--17--15--17--|-18-------15--|-15--18-------------|
|-----------------|--------------|--------------------|
|-----------------|--------------|--------------------|
|-----------------|--------------|--------------------|
|-----------------|--------------|--------------------|


Verse4
E5 C5
E S S S S S S S S S S S S S S E S S S S S S S S S S S S S S
|-------------------------------------|-------------------------------|
|-------------------------------------|-------------------------------|
|--9----------------------------------|-5-----------------------------|
|--9----------------------------------|-5-----------------------------|
|--7--7-7-7-7-7-7-7-7-7-7---7---7-7-7-|-3-3-3-3-3-3-3-3-3-3-3-3-3-3-3-|
|-------------------------------------|-------------------------------|
|
| ~~~
| H. +Q W
|-------------------------------------|-------------------------------|
|-17----------------------(17)-------|-------------------------------|
|-------------------------------------|-------------------------------|
|-------------------------------------|-------------------------------|
|-------------------------------------|-------------------------------|
|-------------------------------------|-------------------------------|


A5 Cb5
E S S S S S S S S S S S S S S E S S S S S S S S S S S S S S
|-------------------------------|--------------------------------|
|-------------------------------|--------------------------------|
|-2-----------------------------|-4------------------------------|
|-2-----------------------------|-4------------------------------|
|-0-0-0-0-0-0-0-0-0-0-0-0-0-0-0-|-2-2-2-2-2-2-2-2-2-2-2-2-2-2-2--|
|-------------------------------|--------------------------------|
|
| W W
|-------------------------------|--------------------------------|
|-------------------------------|--------------------------------|
|-------------------------------|--------------------------------|
|-------------------------------|--------------------------------|
|-------------------------------|--------------------------------|
|-------------------------------|--------------------------------|


C5 A5
E S S S S S S S S S S S S S S E S S S S S S S S S S S S S S
|-------------------------------|-------------------------------|
|-------------------------------|-------------------------------|
|-5-----------------------------|-2-----------------------------|
|-5-----------------------------|-2-----------------------------|
|-3-3-3-3-3-3-3-3-3-3-3-3-3-3-3-|-0-0-0-0-0-0-0-0-0-0-0-0-0-0-0-|
|-------------------------------|-------------------------------|
|
| W W
|-------------------------------|-------------------------------|
|-------------------------------|-------------------------------|
|-------------------------------|-------------------------------|
|-------------------------------|-------------------------------|
|-------------------------------|-------------------------------|
|-------------------------------|-------------------------------|


Cb5
W +W
|-----------------|-------------------|
|-----------------|-------------------|
|-4---------------|-(4)---------------|
|-4---------------|-(4)---------------|
|-2---------------|-(2)---------------|
|-----------------|-------------------|
|
| E E E E E E E E E E E E E Q.
|-----------------|-------------------|
|-----------------|-------------------|
|-----------------|-------------------|
|---4---5---4-----|-----4---5---4-----|
|-2-------------2-|-------------------|
|-----------------|-------------------|


E5 C5
E S S S S S S S S S S S S S S E S S S S S S S S S S S S S S
|-------------------------------|-------------------------------|
|-------------------------------|-------------------------------|
|-9-----------------------------|-5-----------------------------|
|-9-----------------------------|-5-----------------------------|
|-7-7-7-7-7-7-7-7-7-7-7-7-7-7-7-|-3-3-3-3-3-3-3-3-3-3-3-3-3-3-3-|
|-------------------------------|-------------------------------|


A5 Cb5
E S S S S S S S S S S S S S S E S S S S S S S S S S S S S S
|-------------------------------|--------------------------------|
|-------------------------------|--------------------------------|
|-2-----------------------------|-4------------------------------|
|-2-----------------------------|-4------------------------------|
|-0-0-0-0-0-0-0-0-0-0-0-0-0-0-0-|-2-2-2-2-2-2-2-2-2-2-2-2-2-2-2--|
|-------------------------------|--------------------------------|


C5 A5
E S S S S S S S S S S S S S S E S S S S S S S S S S S S S S
|-------------------------------|-------------------------------|
|-------------------------------|-------------------------------|
|-5-----------------------------|-2-----------------------------|
|-5-----------------------------|-2-----------------------------|
|-3-3-3-3-3-3-3-3-3-3-3-3-3-3-3-|-0-0-0-0-0-0-0-0-0-0-0-0-0-0-0-|
|-------------------------------|-------------------------------|
|
| Gtr II
| W W
|-------------------------------|-------------------------------|
|-------------------------------|-------------------------------|
|-------------------------------|-------------------------------|
|-------------------------------|-------------------------------|
|-------------------------------|-------------------------------|
|-------------------------------|-------------------------------|


Cb5
W +W
|-----------------|-------------------|
|-----------------|-------------------|
|-4---------------|-(4)---------------|
|-4---------------|-(4)---------------|
|-2---------------|-(2)---------------|
|-----------------|-------------------|
|
| E E E E E E E E E E E E E Q.
|-----------------|-------------------|
|-----------------|-------------------|
|-----------------|-------------------|
|---4---5---4-----|-----4---5---4-----|
|-2-------------2-|-------------------|
|-----------------|-------------------|


E5 A5 G5 A5 Cb5 C5 A5
H H W H H H H
|-----------|----------|-----------|-----------|
|-----------|----------|-----------|-----------|
|------2----|----------|-2----4----|-5----2----|
|-2----2----|-5--------|-2----4----|-5----2----|
|-2----0----|-5--------|-0----2----|-3----0----|
|-0---------|-3--------|-----------|-----------|


E5 G5 A5 Cb5 A5 D5
H H H H H. E E W
|-----------|-----------|-------------|------|
|-----------|-----------|-------------|------|
|-----------|-----------|-------------|-7----|
|-2----5----|-7----9----|-7-----------|-7----|
|-2----5----|-7----9----|-7-------5-5-|-5----|
|-0----3----|-5----7----|-5-----------|------|


E5 G5
E S S S S E S S S S E S S E S S S S E S S S S E S S
|--------------------------------|----------------------------|
|--------------------------------|----------------------------|
|--------------------------------|----------------------------|
|--2-----------2-----------2-----|--5---------5---------5-----|
|--2-----------2-----------2-----|--5---------5---------5-----|
|--0--0-0-0-0--0--0-0-0-0--0-0-0-|--3-3-3-3-3-3-3-3-3-3-3-3-3-|
|
| Gtr II
| Q. Q. Q W
|-15----------17----------19-----|-15-------------------------|
|--------------------------------|----------------------------|
|-12----------14----------16-----|-12-------------------------|
|--------------------------------|----------------------------|
|--------------------------------|----------------------------|
|--------------------------------|----------------------------|
|
| Gtr III
| Q. Q. Q W
|-12----------14----------15-----|-12-------------------------|
|--------------------------------|----------------------------|
|--9----------11----------12-----|--9-------------------------|
|--------------------------------|----------------------------|
|--------------------------------|----------------------------|
|--------------------------------|----------------------------|


Cb5 D5
E S S S S E S S S S E S S E S S S S E S S S S E S S
|--------------------------------|-------------------------------|
|--------------------------------|-------------------------------|
|--4-----------4-----------4-----|--7---------7---------7--------|
|--4-----------4-----------4-----|--7---------7---------7--------|
|--2--2-2-2-2--2--2-2-2-2--2-2-2-|--5-5-5-5-5-5-5-5-5-5-5-5-5----|
|--------------------------------|-------------------------------|
|
| Q. Q. Q W
|-10----------12----------14-----|-10----------------------------|
|--------------------------------|-------------------------------|
|--7-----------9----------11-----|--7----------------------------|
|--------------------------------|-------------------------------|
|--------------------------------|-------------------------------|
|--------------------------------|-------------------------------|
|
| Q. Q. Q W
|-10----------12----------14-----|-10----------------------------|
|--------------------------------|-------------------------------|
|--7-----------9----------11-----|--7----------------------------|
|--------------------------------|-------------------------------|
|--------------------------------|-------------------------------|
|--------------------------------|-------------------------------|


E5 G5
E S S S S E S S S S E S S E S S S S E S S S S E S S
|--------------------------------|----------------------------|
|--------------------------------|----------------------------|
|--------------------------------|----------------------------|
|--2-----------2-----------2-----|--5---------5---------5-----|
|--2-----------2-----------2-----|--5---------5---------5-----|
|--0--0-0-0-0--0--0-0-0-0--0-0-0-|--3-3-3-3-3-3-3-3-3-3-3-3-3-|
|
| Q. Q. Q W
|-15----------17----------19-----|-15-------------------------|
|--------------------------------|----------------------------|
|-12----------14----------16-----|-12-------------------------|
|--------------------------------|----------------------------|
|--------------------------------|----------------------------|
|--------------------------------|----------------------------|
|
| Q. Q. Q W
|-12----------14----------15-----|-12-------------------------|
|--------------------------------|----------------------------|
|--9----------11----------12-----|--9-------------------------|
|--------------------------------|----------------------------|
|--------------------------------|----------------------------|
|--------------------------------|----------------------------|


Cb5 D5
E S S S S E S S S S E S S E S S S S E S S S S E S S
|--------------------------------|----------------------------------|
|--------------------------------|----------------------------------|
|--4-----------4-----------4-----|--7------------7---------7--------|
|--4-----------4-----------4-----|--7------------7---------7--------|
|--2--2-2-2-2--2--2-2-2-2--2-2-2-|--5--5---5-5-5-5-5-5-5-5-5-5-5----|
|--------------------------------|----------------------------------|
|
| Q. Q. Q E H..
|-12----------14----------15-----|-15-17----------------------------|
|--------------------------------|----------------------------------|
|--9----------11----------12-----|-12-14----------------------------|
|--------------------------------|----------------------------------|
|--------------------------------|----------------------------------|
|--------------------------------|----------------------------------|
|
| Q. Q. Q E H..
|-12----------14----------15-----|-15-17----------------------------|
|--------------------------------|----------------------------------|
|--9----------11----------12-----|-12-14----------------------------|
|--------------------------------|----------------------------------|
|--------------------------------|----------------------------------|
|--------------------------------|----------------------------------|


Chorus
A5 C5 E5 G5
E E E E E E E E E E E E E E E E E E E E E E E E E E E E E E E E
||------------------|-----------------|-----------------|-------------------||
||o-----------------|-----------------|-----------------|------------------o||
||--2---------------|-5---------------|-----------------|-------------------||
||--2---------------|-5---------------|-2---------------|-5-----------------||
||o-0-0-0-0-0-0-0-0-|-3-3-3-3-3-3-3-3-|-2---------------|-5----------------o||
||------------------|-----------------|-0-0-0-0-0-0-0-0-|-3-3-3-3-3-3-3-3---||


A5 C5
E S S S S S S S S S S S S S S E S S S S S S S S S S S S S S
||--------------------------------|-------------------------------|
||o-------------------------------|-------------------------------|
||--2-----------------------------|-5-----------------------------|
||--2-----------------------------|-5-----------------------------|
||o-0-0-0-0-0-0-0-0-0-0-0-0-0-0-0-|-3-3-3-3-3-3-3-3-3-3-3-3-3-3-3-|
||--------------------------------|-------------------------------|


1. 2.
E5 G5 E5
E S S S S S S S S S S S S S S E S S S S S S S S S S S S S S q H. W
|-------------------------------|--------------------------------||-------------|------|
|-------------------------------|-------------------------------o||-------------|------|
|-------------------------------|--------------------------------||-------------|------|
|-2-----------------------------|-5------------------------------||--2----------|------|
|-2-----------------------------|-5-----------------------------o||--2----------|------|
|-0-0-0-0-0-0-0-0-0-0-0-0-0-0-0-|-3-3-3-3-3-3-3-3-3-3-3-3-3-3-3--||--0----------|------|


Guitar Solo
A5 E5EbD5 A5 E5EbD5 Cb5 F5
Q. E E Q. Q. E E Q. E S S S S S S S S S S Q
|------------------|--------------------|----------------------------------------------|
|------------------|--------------------|----------------------------------------------|
|---------9-8-7----|-----------9-8-7----|--4----------------------------------10-------|
|--7------9-8-7----|---7-------9-8-7----|--4----------------------------------10-------|
|--7------7-6-5----|---7-------7-6-5----|--2-----2--2--2--2--2--2--2--2--2--2--8-------|
|--5---------------|---5----------------|----------------------------------------------|
|
| Gtr II
| ~~~~~~~~~~~~~~~~~~~~~~~~~~
| |--3--|
| W +W S S S S S S S S S S S S E E E
|------------------|--------------------|-19-20-20-20-20-20-20-20-20-19-17-20-19-17-15-|
|-20b22------------|-(20)b22------------|----------------------------------------------|
|------------------|--------------------|----------------------------------------------|
|------------------|--------------------|----------------------------------------------|
|------------------|--------------------|----------------------------------------------|
|------------------|--------------------|----------------------------------------------|


Cb5 F5
E S S S S S S S S S S Q
|-----------------------------------------------|
|-----------------------------------------------|
|--4-------------------------------------10-----|
|--4-------------------------------------10-----|
|--2-----2--2--2--2--2--2--2-2----2----2--8-----|
|-----------------------------------------------|
|
| |----3----|
| S S S S S S S S E E E Q
|-19-20-20-20-20-20-20-20-20---19---20---20b22--|
|-----------------------------------------------|
|-----------------------------------------------|
|-----------------------------------------------|
|-----------------------------------------------|
|-----------------------------------------------|


A5 E5EbD5 A5 E5EbD5 Cb5 F5
Q. E E Q. Q. E E Q. E S S S S S S S S S S Q
|------------------|--------------------|----------------------------------------------|
|------------------|--------------------|----------------------------------------------|
|---------9-8-7----|-----------9-8-7----|--4----------------------------------10-------|
|--7------9-8-7----|---7-------9-8-7----|--4----------------------------------10-------|
|--7------7-6-5----|---7-------7-6-5----|--2-----2--2--2--2--2--2--2--2--2--2--8-------|
|--5---------------|---5----------------|----------------------------------------------|
|
| ~~~~~~~~~~~~~~~~~~~~~~~~~~
| |--3--|
| W +W S S S S S S S S S S S S E E E
|------------------|--------------------|-19-20-20-20-20-20-20-20-20-19-17-20-19-17-15-|
|-20b22------------|-(20)b22------------|----------------------------------------------|
|------------------|--------------------|----------------------------------------------|
|------------------|--------------------|----------------------------------------------|
|------------------|--------------------|----------------------------------------------|
|------------------|--------------------|----------------------------------------------|


Cb5 F5
E S S S S S S S S S S Q
|-----------------------------------------------|
|-----------------------------------------------|
|--4-------------------------------------10-----|
|--4-------------------------------------10-----|
|--2-----2--2--2--2--2--2--2-2----2----2--8-----|
|-----------------------------------------------|
|
| |----3----|
| S S S S S S S S E E E Q
|-19-20-20-20-20-20-20-20-20---19---20---20b22--|
|-----------------------------------------------|
|-----------------------------------------------|
|-----------------------------------------------|
|-----------------------------------------------|
|-----------------------------------------------|


A5 F5
H H
||--------------------------------------------------|
||o-------------------------------------------------|
||--------------------------10----------------------|
||---7----------------------10----------------------|
||o--7-----------------------8----------------------|
||---5----------------------------------------------|
|
| S S S S S S S S S S S S S S S S
||--20-17----17-20-17-22-17-20-17----17-20-17-22-17-|
||o-------20----------------------20----------------|
||--------------------------------------------------|
||--------------------------------------------------|
||o-------------------------------------------------|
||--------------------------------------------------|


D5 E5
H H
|---------------------------------------------------||
|--------------------------------------------------o||
|--7-----------------------9------------------------||
|--7-----------------------9------------------------||
|--5-----------------------7-----------------------o||
|---------------------------------------------------||
|
| S S S S S S S S S S S S S S S S
|-20-17----17-20-17-22-17-20-19-17----17------------||
|-------20-------------------------20----20-17-20--o||
|---------------------------------------------------||
|---------------------------------------------------||
|--------------------------------------------------o||
|---------------------------------------------------||


B5 Bb5
E E E E +H +W
|-------------------------|-----------------|
|-------------------------|-----------------|
|--4--4--4--3--(3)--------|--(3)------------|
|--4--4--4--3--(3)--------|--(3)------------|
|--2--2--2--1--(1)--------|--(1)------------|
|-------------------------|-----------------|
|
| E E E E +H W
|-------------------------|-----------------|
|-19-19-19-18-(18tr19)----|--18tr19---------|
|-------------------------|-----------------|
|-------------------------|-----------------|
|-------------------------|-----------------|
|-------------------------|-----------------|
|
| Gtr III
| E E E E +H +W
|-------------------------|-----------------|
|-------------------------|-----------------|
|-16----16-15-(15tr16)----|-(15tr16)--------|
|----16-------------------|-----------------|
|-------------------------|-----------------|
|-------------------------|-----------------|


B5 Bb5
E E E E +H +W
|---------------------------|--------------------|
|---------------------------|--------------------|
|--4--4--4--3--(3)----------|--(3)---------------|
|--4--4--4--3--(3)----------|--(3)---------------|
|--2--2--2--1--(1)----------|--(1)---------------|
|---------------------------|--------------------|
|
| E E E Q Q. W a
|---------------------------|--15b17----------17-|
|-19-19-19------------------|--------------------|
|---------------------------|--------------------|
|---------------------------|--------------------|
|---------------------------|--------------------|
|---------------------------|--------------------|
|
| E E E E +H +W
|---------------------------|--------------------|
|----------18-(18tr19)------|-(18tr19)-----------|
|-16----16-15-(15tr16)------|-(15tr16)-----------|
|----16---------------------|--------------------|
|---------------------------|--------------------|
|---------------------------|--------------------|


D5
Q E E E E E E E E E E E E E E
|--------------------------|-------------------------------|
|--------------------------|-------------------------------|
|--7-----------------------|-------------------------------|
|--7-----------------------|-------------------------------|
|--5------5-5-5-5-----5--5-|--5--5-----5--5--5-----5--5--5-|
|--------------------------|-------------------------------|
|
| H. a E E E S S E E S S E E E
|-15b17===========15r15-13-|-15-15-13-12----12----------12-|
|--------------------------|-------------15----15-13-15----|
|--------------------------|-------------------------------|
|--------------------------|-------------------------------|
|--------------------------|-------------------------------|
|--------------------------|-------------------------------|


Bb5 G5
Q E E E E E E Q E E E E E E
|-------------------------------|---------------------|
|-------------------------------|---------------------|
|-------------------------------|---------------------|
|--8----------------------------|---5-----------------|
|--8----------------------------|---5-----------------|
|--6--------6--6--6-----6--6--6-|---3---3-3--3-3--3-3-|
|
| Q +Q E a E E E +H Q Q
|-12b13===(12)---12r12----------|---------------------|
|----------------------15-13-15-|-(15)----------------|
|-------------------------------|-----------12--------|
|-------------------------------|----------------14---|
|-------------------------------|---------------------|
|-------------------------------|---------------------|


D5
Q E E E E E E E E E E E E E E
|--------------------|--------------------------|
|--------------------|--------------------------|
|--7-----------------|--------------------------|
|--7-----------------|--------------------------|
|--5---5--5--5-5-5-5-|---5--5--5--5--5--5--5--5-|
|--------------------|--------------------------|
|
| q E E H +Q E E E E E E
|--------------------|--------------------------|
|--------------------|--------15-17-18-17-------|
|--------12-14-------|-(14)---------------19-17-|
|-15--15-------------|--------------------------|
|--------------------|--------------------------|
|--------------------|--------------------------|


F5 G5
Q E E E E E E Q E E E E E E
|---------------------|------------------|
|---------------------|------------------|
|---------------------|------------------|
|--3------------------|--5---------------|
|--3------------------|--5---------------|
|--1--1-1--1----1-1-1-|--3--3-3--3-3-3-3-|
|
| ~~
| H H H H
|---------------------|------------------|
|---------20b22-------|-20------17-------|
|-15------------------|------------------|
|---------------------|------------------|
|---------------------|------------------|
|---------------------|------------------|


B5 D5
E S S S S S S S S S S S S S S E S S S S S S S S S S S S S S
|-------------------------------------------------------------|-------------------------------------------------------------|
|-------------------------------------------------------------|-------------------------------------------------------------|
|--4----------------------------------------------------------|--7----------------------------------------------------------|
|--4----------------------------------------------------------|--7----------------------------------------------------------|
|--2---2----2-2---2----2---2----2-2---2----2-2---2----2---2---|--5---5----5-5---5----5---5----5-5---5----5-5---5----5---5---|
|-------------------------------------------------------------|-------------------------------------------------------------|
|
| |---------------------------6----------------------------| |---------------------------6----------------------------|
| E S S E S S E S S E S S E S S E S S E S S E S S E S S E S S E S S E S S
|-------------------------------------------------------------|-------------------------------------------------------------|
|-12-0-0-13---0-0---12---0---0-10---0-0-12---0-0---13---0---0-|-12-0-0-13---0-0---12---0---0-10---0-0-12---0-0---13---0---0-|
|-------------------------------------------------------------|-------------------------------------------------------------|
|-------------------------------------------------------------|-------------------------------------------------------------|
|-------------------------------------------------------------|-------------------------------------------------------------|
|-------------------------------------------------------------|-------------------------------------------------------------|


Bb5 G5
E S S S S S S S S S S S S S S E S S S S S S S S S S S S S S
|---------------------------------------|------------------------------------|
|---------------------------------------|------------------------------------|
|---------------------------------------|------------------------------------|
|--8------------------------------------|--5---------------------------------|
|--8------------------------------------|--5---------------------------------|
|--6---6--6-6-6--6-6--6-6-6--6-6-6--6-6-|--3---3--3-3-3-3-3--3-3-3-3-3-3-3-3-|
|
| S S S S S S S S S S S S S S S S S S S S S S S S S S S S S S S S
|---------------------------------------|------------------------------------|
|-15-0-0-13-0-0-12-0-13-0-0-12-0-0-10-0-|-12-0-0-10-0-0-8-0-10-0-0-8-0-0-5-0-|
|---------------------------------------|------------------------------------|
|---------------------------------------|------------------------------------|
|---------------------------------------|------------------------------------|
|---------------------------------------|------------------------------------|


B5 D5
E S S S S S S S S S S S S S S E S S S S S S S S S S S S S S
|-------------------------------------------------------------|-------------------------------------------------------------|
|-------------------------------------------------------------|-------------------------------------------------------------|
|--4----------------------------------------------------------|--7----------------------------------------------------------|
|--4----------------------------------------------------------|--7----------------------------------------------------------|
|--2---2----2-2---2----2---2----2-2---2----2-2---2----2---2---|--5---5----5-5---5----5---5----5-5---5----5-5---5----5---5---|
|-------------------------------------------------------------|-------------------------------------------------------------|
|
| |---------------------------6----------------------------| |---------------------------6----------------------------|
| E S S E S S E S S E S S E S S E S S E S S E S S E S S E S S E S S E S S
|-------------------------------------------------------------|-------------------------------------------------------------|
|-12-0-0-13---0-0---12---0---0-10---0-0-12---0-0---13---0---0-|-12-0-0-13---0-0---12---0---0-10---0-0-12---0-0---13---0---0-|
|-------------------------------------------------------------|-------------------------------------------------------------|
|-------------------------------------------------------------|-------------------------------------------------------------|
|-------------------------------------------------------------|-------------------------------------------------------------|
|-------------------------------------------------------------|-------------------------------------------------------------|


Bb5 G5
E S S S S S S S S S S S S S S E S S S S S S S S S S S S S S
|---------------------------------------|------------------------------------|
|---------------------------------------|------------------------------------|
|---------------------------------------|------------------------------------|
|--8------------------------------------|--5---------------------------------|
|--8------------------------------------|--5---------------------------------|
|--6---6--6-6-6--6-6--6-6-6--6-6-6--6-6-|--3---3--3-3-3-3-3--3-3-3-3-3-3-3-3-|
|
| S S S S S S S S S S S S S S S S S S S S S S S S S S S S S S S S
|---------------------------------------|------------------------------------|
|-15-0-0-13-0-0-12-0-13-0-0-12-0-0-10-0-|-12-0-0-10-0-0-8-0-10-0-0-8-0-0-5-0-|
|---------------------------------------|------------------------------------|
|---------------------------------------|------------------------------------|
|---------------------------------------|------------------------------------|
|---------------------------------------|------------------------------------|


E5 Cb5Bb5A5 E5 Cb5Bb5A5 E5 B5 Bb5 A5
Q. E E Q. Q. E E Q. S S S S S S S S S S S S S S S S
|-------------------|-------------------|-19--15-12-15-19-15-20-15-19-15-12--15-19-15-20-15-|
|-------------------|-------------------|---------------------------------------------------|
|--9----------------|--9----------------|---------------------------------------------------|
|--9-----9--8--7----|--9-----9--8--7----|---------------------------------------------------|
|--7-----9--8--7----|--7-----9--8--7----|---------------------------------------------------|
|--------7--6--5----|--------7--6--5----|---------------------------------------------------|
|
| ~~~ ~~~
| Q. E E Q. Q. E E Q. Q. E E Q.
|-------------------|-------------------|---------------------------------------------------|
|-17----12----------|-17----12----------|---------------------------------------------------|
|----------15-14----|----------15-14----|--9------------------------------------------------|
|-------------------|-------------------|--9------------------9-----8-----7-----------------|
|-------------------|-------------------|--7------------------9-----8-----7-----------------|
|-------------------|-------------------|---------------------7-----6-----5-----------------|


E5 B5 Bb5 A5
S S S S S S S S S S S S S S S S
|-19--15-12-15-19-15-20-15-19-15-12--15-19-15-20-15----|
|------------------------------------------------------|
|------------------------------------------------------|
|------------------------------------------------------|
|------------------------------------------------------|
|------------------------------------------------------|
|
| Q. E E Q.
|------------------------------------------------------|
|------------------------------------------------------|
|--9---------------------------------------------------|
|--9------------------9-----8-----7--------------------|
|--7------------------9-----8-----7--------------------|
|---------------------7-----6-----5--------------------|


Verse5
E5 F5
E S S S S S S S S S S S S S S E S S S S S S S S S S S S S S
|--------------------------------|-------------------------------|
|--------------------------------|-------------------------------|
|--------------------------------|-------------------------------|
|--2-----------------------------|-3-----------------------------|
|--2-----------------------------|-3-----------------------------|
|--0-0-0-0-0-0-0-0-0-0-0-0-0-0-0-|-1-1-1-1-1-1-1-1-1-1-1-1-1-1-1-|
|
| ~~
| W W
|--------------------------------|-------------------------------|
|-17-----------------------------|-------------------------------|
|--------------------------------|-------------------------------|
|--------------------------------|-------------------------------|
|--------------------------------|-------------------------------|
|--------------------------------|-------------------------------|


C5 Cb5
E S S S S S S S S S S S S S S E S S S S S S S S S S S S S S
|-------------------------------|--------------------------------|
|-------------------------------|--------------------------------|
|-5-----------------------------|-4------------------------------|
|-5-----------------------------|-4------------------------------|
|-3-3-3-3-3-3-3-3-3-3-3-3-3-3-3-|-2-2-2-2-2-2-2-2-2-2-2-2-2-2-2--|
|-------------------------------|--------------------------------|
|
| W W
|-------------------------------|--------------------------------|
|-------------------------------|--------------------------------|
|-------------------------------|--------------------------------|
|-------------------------------|--------------------------------|
|-------------------------------|--------------------------------|
|-------------------------------|--------------------------------|


E5 F5
E S S S S S S S S S S S S S S E S S S S S S S S S S S S S S
|-------------------------------|-------------------------------|
|-------------------------------|-------------------------------|
|-------------------------------|-------------------------------|
|-2-----------------------------|-3-----------------------------|
|-2-----------------------------|-3-----------------------------|
|-0-0-0-0-0-0-0-0-0-0-0-0-0-0-0-|-1-1-1-1-1-1-1-1-1-1-1-1-1-1-1-|


C5 Cb5
E S S S S S S S S S S S S S S E S S S S S S S S S S S S S S
|-------------------------------|--------------------------------|
|-------------------------------|--------------------------------|
|-5-----------------------------|-4------------------------------|
|-5-----------------------------|-4------------------------------|
|-3-3-3-3-3-3-3-3-3-3-3-3-3-3-3-|-2-2-2-2-2-2-2-2-2-2-2-2-2-2-2--|
|-------------------------------|--------------------------------|


E5 G5
E S S S S S S S S S S S S S S E S S S S S S S S S S S S S S
||--------------------------------|-------------------------------|
||o-------------------------------|-------------------------------|
||--------------------------------|-------------------------------|
||--2-----------------------------|-5-----------------------------|
||o-2-----------------------------|-5-----------------------------|
||--0-0-0-0-0-0-0-0-0-0-0-0-0-0-0-|-3-3-3-3-3-3-3-3-3-3-3-3-3-3-3-|


Cb5 D5
E S S S S S S S S S S S S S S E S S S S S S S S S S S S S S
|-------------------------------|--------------------------------||
|-------------------------------|-------------------------------o||
|-4-----------------------------|-7------------------------------||
|-4-----------------------------|-7------------------------------||
|-2-2-2-2-2-2-2-2-2-2-2-2-2-2-2-|-5-5-5-5-5-5-5-5-5-5-5-5-5-5-5-o||
|-------------------------------|--------------------------------||


Lead5
A5
Gtr II
S S E S S E E q E
|---------------------------12-------12b13====|
|-10-10-12---13-12-10-------------------------|
|-----------------------9----9--------9b10====|
|--7--7--9---10--9--7-------------------------|
|-----------------------7---------------------|
|---------------------------------------------|
|
| Gtr I
| E S S S S S S S S S S S S S S
|---------------------------------------------|
|---------------------------------------------|
|---------------------------------------------|
|--7------------------------------------------|
|--7------------------------------------------|
|--5-----5-5--5--5--5-5-5-5--5-5-5-5--5-----5-|


F5
+H +Q. +E a
|-(12)-------------(12)-----------(12)r==12-|
|-------------------------------------------|
|--(9)--------------(9)------------(9)r===9-|
|-------------------------------------------|
|-------------------------------------------|
|-------------------------------------------|
|
| E S S S S S S S S S S S S S S
|-------------------------------------------|
|-------------------------------------------|
|--10---------------------------------------|
|--10---------------------------------------|
|---8--8-8-8-8-8-8---8--8-8-8-8-8---8--8----|
|-------------------------------------------|


Gb5
E. E. E. +S E. +S E
|-----------------------------10b12======(10)r-10b12====|
|-10----12------13------(13)---------------------------|
|------------------------------7b9========(7)r--7b9=====|
|--7-----9------10------(10)---------------------------|
|-------------------------------------------------------|
|-------------------------------------------------------|
|
| E S S S S S S S S S S S S S S
|-------------------------------------------------------|
|-------------------------------------------------------|
|-11----------------------------------------------------|
|-11----------------------------------------------------|
|--9--9--9--9-9--9--9-9---9----9-----9-9---9----9-----9-|
|-------------------------------------------------------|


D5 E5
+Q Q Q Q
|-(10)r====10-----------------------|
|-------------------13-----12-------|
|--(7)r=====7-----------------------|
|-------------------10------9-------|
|-----------------------------------|
|-----------------------------------|
|
| E S S S S S S E S S S S S S
|-----------------------------------|
|-----------------------------------|
|---7----------------9--------------|
|---7----------------9--------------|
|---5--5-5--5-5-5-5--7-7-7--7-7-7-7-|
|-----------------------------------|


A5 A5 Cb5 C5 D5 E5 Gb5
S S E S S E E q E E q q q E a
|----------------------------------|-------10--12--12b14==(12)-|
|-10-10-12---13-12-10-------10--12-|---13----------------------|
|-----------------------9----------|--------7---9---9b11===(9)-|
|--7--7--9---10--9--7--------7---9-|---10----------------------|
|-----------------------7----------|---------------------------|
|----------------------------------|---------------------------|
|
| E S S S S S S S S q E E q q q E
|----------------------------------|---------------------------|
|----------------------------------|---------------------------|
|----------------------------------|--------7---9--11----------|
|--7-------------------------7---9-|---10---7---9--11----------|
|--7-------------------------7---9-|---10---5---7---9----------|
|--5-----5-5--5--5--5-5-5-5--5---7-|----8----------------------|


Gb5
+H. +S +S E
|-(12)---------------------(12)r(12)-17---|
|-----------------------------------------|
|-----------------------------------------|
|-----------------------------------------|
|-----------------------------------------|
|-----------------------------------------|
|
| +E S S S S S S S S S S S S S S
|-----------------------------------------|
|-----------------------------------------|
|-(11)------------------------------------|
|-(11)------------------------------------|
|--(9)-9-9-9-9-9-9-9-9-9-9---9----9---9-9-|
|-----------------------------------------|


D5 E5
Q Q Q Q
|-20b22r====20b22r======20-----19-------|
|---------------------------------------|
|---------------------------------------|
|---------------------------------------|
|---------------------------------------|
|---------------------------------------|
|
| E S S S S S S E S S S S S S
|---------------------------------------|
|---------------------------------------|
|--7---------------------9--------------|
|--7---------------------9--------------|
|--5----5-5--5----5-5-5--7-7-7--7-7-7-7-|
|---------------------------------------|


Verse6
A5 C5
Gtr I
E S S S S S S S S S S S S S S E S S S S S S S S S S S S S S
|-------------------------------|-------------------------------|
|-------------------------------|-------------------------------|
|-2-----------------------------|-5-----------------------------|
|-2-----------------------------|-5-----------------------------|
|-0-0-0-0-0-0-0-0-0-0-0-0-0-0-0-|-3-3-3-3-3-3-3-3-3-3-3-3-3-3-3-|
|-------------------------------|-------------------------------|


G5 E5 Eb5D5
E S S S S S S S S S S S S S S S S Q. Q Q
|-------------------------------|------------------|
|-------------------------------|------------------|
|-------------------------------|------------------|
|-5-----------------------------|-----9----8--7----|
|-5-----------------------------|-----7----6--5----|
|-3-3-3-3-3-3-3-3-3-3-3-3-3-3-3-|-3-3--------------|


A5 C5
E S S S S S S S S S S S S S S E S S S S S S S S S S S S S S
|-------------------------------|-------------------------------|
|-------------------------------|-------------------------------|
|-2-----------------------------|-5-----------------------------|
|-2-----------------------------|-5-----------------------------|
|-0-0-0-0-0-0-0-0-0-0-0-0-0-0-0-|-3-3-3-3-3-3-3-3-3-3-3-3-3-3-3-|
|-------------------------------|-------------------------------|


G5 E5 F5 G5
E S S S S S S S S S S S S S S S S Q. Q Q
|-------------------------------|--------------------|
|-------------------------------|--------------------|
|-------------------------------|--------------------|
|-5-----------------------------|-----9----10--12----|
|-5-----------------------------|-----7-----8--10----|
|-3-3-3-3-3-3-3-3-3-3-3-3-3-3-3-|-3-3----------------|


Chorus
A5 C5 E5 G5
E E E E E E E E E E E E E E E E E E E E E E E E E E E E E E E E
||------------------|-----------------|-----------------|-------------------||
||o-----------------|-----------------|-----------------|------------------o||
||--2---------------|-5---------------|-----------------|-------------------||
||--2---------------|-5---------------|-2---------------|-5-----------------||
||o-0-0-0-0-0-0-0-0-|-3-3-3-3-3-3-3-3-|-2---------------|-5----------------o||
||------------------|-----------------|-0-0-0-0-0-0-0-0-|-3-3-3-3-3-3-3-3---||


A5 C5
E S S S S S S S S S S S S S S E S S S S S S S S S S S S S S
||--------------------------------|-------------------------------|
||o-------------------------------|-------------------------------|
||--2-----------------------------|-5-----------------------------|
||--2-----------------------------|-5-----------------------------|
||o-0-0-0-0-0-0-0-0-0-0-0-0-0-0-0-|-3-3-3-3-3-3-3-3-3-3-3-3-3-3-3-|
||--------------------------------|-------------------------------|


1. 2.
E5 G5 E5
E S S S S S S S S S S S S S S E S S S S S S S S S S S S S S q H. W
|-------------------------------|--------------------------------||------------|------|
|-------------------------------|-------------------------------o||------------|------|
|-------------------------------|--------------------------------||------------|------|
|-2-----------------------------|-5------------------------------||-2----------|------|
|-2-----------------------------|-5-----------------------------o||-2----------|------|
|-0-0-0-0-0-0-0-0-0-0-0-0-0-0-0-|-3-3-3-3-3-3-3-3-3-3-3-3-3-3-3--||-0----------|------|


A5 C5
E S S S S S S S S S S S S S S E S S S S S S S S S S S S S S
||--------------------------------|-------------------------------|
||o-------------------------------|-------------------------------|
||--2-----------------------------|-5-----------------------------|
||--2-----------------------------|-5-----------------------------|
||o-0-0-0-0-0-0-0-0-0-0-0-0-0-0-0-|-3-3-3-3-3-3-3-3-3-3-3-3-3-3-3-|
||--------------------------------|-------------------------------|


1. 2.
E5 G5 E5 G5
E S S S S S S S S S S S S S S E S S S S S S S S S S S S S S W W
|-------------------------------|--------------------------------||----------|------|
|-------------------------------|-------------------------------o||----------|------|
|-------------------------------|--------------------------------||----------|------|
|-2-----------------------------|-5------------------------------||-2--------|-5----|
|-2-----------------------------|-5-----------------------------o||-2--------|-5----|
|-0-0-0-0-0-0-0-0-0-0-0-0-0-0-0-|-3-3-3-3-3-3-3-3-3-3-3-3-3-3-3--||-0--------|-3----|


Outro
A5
PM----------------------------------------
E E E E E E E S S E E E E E E E S S
||--------------------|----------------------|
||o-------------------|----------------------|
||--------------------|----------------------|
||--------------------|----------------------|
||o-7---7---7---7-----|--6-----6---6---6-----|
||----5---5---5---5-5-|------5---5---5---5-5-|
|
| Gtr II
| W +H.. S S
||--------------------|----------------------|
||o-------------------|----------------------|
||--2-----------------|-(2)------------------|
||--2-----------------|-(2)--------------2-2-|
||o-0-----------------|-(0)--------------0-0-|
||--------------------|----------------------|


A5
----------------------------------------|
E E E E E E E S S E E E E E E E S S
|-------------------|------------------------||
|-------------------|-----------------------o||
|-------------------|------------------------||
|-------------------|------------------------||
|-7---7---7---7-----|--6-----6---6---6------o||
|---5---5---5---5-5-|------5---5---5---5-5---||
|
| W +H.. S S
|-------------------|------------------------||
|-------------------|-----------------------o||
|-2-----------------|-(2)--------------------||
|-2-----------------|-(2)--------------2-2---||
|-0-----------------|-(0)--------------0-0--o||
|-------------------|------------------------||


A5
PM----------------------------------------
E E E E E E E S S E E E E E E E S S
|-------------------|----------------------|
|-------------------|----------------------|
|-------------------|----------------------|
|-------------------|----------------------|
|-7---7---7---7-----|--6-----6---6---6-----|
|---5---5---5---5-5-|------5---5---5---5-5-|
|
| W +H.. S S
|-------------------|----------------------|
|-------------------|----------------------|
|-2-----------------|-(2)------------------|
|-2-----------------|-(2)--------------2-2-|
|-0-----------------|-(0)--------------0-0-|
|-------------------|----------------------|


A5 A5
-----------------|
E E E E E E E S S Q +Q H
|-------------------|---------------*|
|-------------------|---------------*|
|-------------------|---------------*|
|-------------------|-7--(7)-------*|
|-7---7---7---7-----|-7--(7)-------*|
|---5---5---5---5-5-|-5--(5)-------*|
|
| W Q +Q H
|-------------------|---------------*|
|-------------------|---------------*|
|-2-----------------|---------------*|
|-2-----------------|-7--(7)-------*|
|-0-----------------|-7--(7)-------*|
|-------------------|-5--(5)-------*|




--------------------------------------------------------------------------------


Duration Legend
---------------
W - whole; H - half; Q - quarter; E - 8th; S - 16th; T - 32nd; X - 64th; a - acciaccatura
+ - note tied to previous; . - note dotted; .. - note double dotted
Uncapitalized letters represent notes that are staccato (1/2 duration)
Irregular groupings are notated above the duration line
Duration letters will always appear directly above the note/fret number it represents the
duration for. Duration letters with no fret number below them represent rests. Multi-
bar rests are notated in the form Wxn, where n is the number of bars to rest for. Low
melody durations appear below the staff

Tablature Legend
----------------
h - hammer-on
p - pull-off
b - bend
pb - pre-bend
r - bend release (if no number after the r, then release immediately)
/ - slide into or out of (from/to "nowhere")
s - legato slide
S - shift slide
- natural harmonic
[n] - artificial harmonic
n(n) - tapped harmonic
~ - vibrato
tr - trill
T - tap
TP - trem. picking
PM - palm muting
n/ - tremolo bar dip; n = amount to dip
n - tremolo bar down
n/ - tremolo bar up
/n - tremolo bar inverted dip
= - hold bend; also acts as connecting device for hammers/pulls
<> - volume swell (louder/softer)
x - on rhythm slash represents muted slash
o - on rhythm slash represents single note slash

Misc Legend
-----------
| - bar
|| - double bar
||o - repeat start
o|| - repeat end
*| - double bar (ending)
: - bar (freetime)
$ - Segno
& - Coda
Tempo markers - = BPM(8/16=s8/s16), where s8 = swing 8ths, s16 = swing 16ths

-----------------------------
|  , ,   |
|     http://akords.org     |
-----------------------------

 (: 0)
    :
  • Traveler In Time
  • Run For The Night
  • Black Chamber
  • Weird Dreams
  • Valhalla
  •  
    , . '.

    ':*
    E-Mail:*
    :
    , : *
     
      

    BLIBL-