|  
 
:  
  : :  
      ?    

  |

akords.org » B » Blind Guardian » Another Holy War

Blind Guardian - Another Holy War 

Tittle: Another Holy War
Album: Imaginations from the other side
Transcribed by Vitaliy Nikitin
---------------------------------------------------------------------------

Another Holy War(editing)
by Blind Guardian

all guitars are 1/2 steps downed

Intro (2x)
Eb--------------------------------------------------
Bb--------------------------------------------------
Gb--------------------------------------------------
Db--3-4-6----9---3-4-6----9---------9---------------
Ab--3-4-6----9---3-4-6----9---------9---------------
Eb--1-2-4----7---1-2-4----7~9-9-9-5-7~9-9-9---------

gtr1
Eb-----------------------------------------------
Bb-----------------------------------------------
Gb-----------------------------------------------
Db--3----3-3-3----3-----3-3-3--------------------
Ab--3----3-3-3----3-----3-3-3--------------------
Eb--1----1-1-1----1-----1-1-1--------------------

gtr1 3x
Eb--------------------------------------------
Bb--------------------------------------------
Gb------------------------------------------
Db--7-----------------------------------------
Ab--7----------------------------------------
Eb--5-----------------------------------------

gtr2 3x
Eb--------------------------------------
Bb--------------------------------------
Gb--7-9-10-9-7-7-7-9-10-9-7-------------
Db--------------------------------------
Ab--------------------------------------
Eb--------------------------------------

gtr1
Eb-------------------------------------
Bb------------------------------------
Gb-------------------------------------
Db--5---3------------------------------
Ab--5---3------------------------------
Eb--3---1-------------------------------



(next goes rithm)

G5 Bb5 C5 F5
I am god the only one , I will bring back freedom to your heart

G5 Bb5 C5 F5
You won't belive that blind can't see noone else before me ever knew

C5 G5 Bb5 F5 G5 Bb5
The way to paradise for another bloody crime I shall return

C5 F5
I am your light on through the night

chorus:

gtr1
D5 Bb5 C5 A5
Eb---------------------------------------
Bb---------------------------------------
Gb--7-------3-----5--------------2-------
Db--7-------3-----5--------------2-------
Ab--5-------1-----3--------------0-------
Eb---------------------------------------

Why am I born, will I fail to rise again

D5 Bb5 C5 A5
Another crusifixion for another holy war

D5 Bb5 C5 A5 D5
Another holy war can't stop what's going on

(and so on)

comments send to : nikit666@chat.ru

-----------------------------
|  , ,   |
|     http://akords.org     |
-----------------------------

 (: 0)
    :
  • Out On The Water
  • Noldor
  • O Holy Night
  • Boogie Man
  •  
    , . '.

    ':*
    E-Mail:*
    :
    , : *
     
      

    BLIBL-